Song name
# A B C D E F G H I J K L M N O P Q R S T U V W X Y Z

Disciple - Horseshoes And Handgrenades tab

Song: Horseshoes and Handgrenades
Band: Disciple
Album: Horseshoes and Handgrenades (B-sides) (2010)
Tabbed by: JRedDisciple
Drop C (C,G,C,F,A,D)
Song: Horseshoes and Handgrenades
Band: Disciple
Album: Horseshoes and Handgrenades (B-sides) (2010)
Tabbed by: JRedDisciple
Drop C (C,G,C,F,A,D)

Intro
D -------------------------------------------------------------------------------|
A -------------------------------------------------------------------------------|
F -------------------------------------------------------------------------------|
C -6-0-3-0-3-5-6-5-3-5--6-0-3-0-3-5--x-x-x--6-0-3-0-3-5-6-5-3-5-0-8-8-3-2--------|
G -6-0-3-0-3-5-6-5-3-5--6-0-3-0-3-5--x-x-x--6-0-3-0-3-5-6-5-3-5-0-8-8-3-2--------|
C -6-0-3-0-3-5-6-5-3-5--6-0-3-0-3-5--x-x-x--6-0-3-0-3-5-6-5-3-5-0-8-8-3-2--------|

Verse 1
D -----------------------------------------------------------------------------|
A -----------------------------------------------------------------------------|
F -----------------------------------------------------------------------------|
C -----------------------------------------------------------------------------|     3x
G ---------------------------------------------------------------4-5-6---------|
C -0-0-7-0-6-0-7-0-8-0-7-0-6-7-6-0-----0-7-0-6-0-7-0-8-0-7-0-------------------|

D --------------------------------------------------------------------------------|
A ----------------------------------------------------10-10-10-10-----------------|
F -----------------------------------------------------9-9-9-9--------------------|
C -----------------------------------------------------x-x-x-x--------------------|
G -----------------------------------------------------x-x-x-x--------------------|
C -0-0-7-0-6-0-7-0-8-0-7-0-6-7-6-0-----0-7-0-6-0-7---x-x-x-x----------------------|

Chorus
D -------------------------------------------------------------------------------|
A -------------------------------------------------------------------------------|
F -------------------------------------------------------------------------------|
C -6-0-3-0-3-5-6-5-3-5--6-0-3-0-3-5--x-x-x--6-0-3-0-3-5-6-5-3-5-0-8-8-3-2--------|
G -6-0-3-0-3-5-6-5-3-5--6-0-3-0-3-5--x-x-x--6-0-3-0-3-5-6-5-3-5-0-8-8-3-2--------|
C -6-0-3-0-3-5-6-5-3-5--6-0-3-0-3-5--x-x-x--6-0-3-0-3-5-6-5-3-5-0-8-8-3-2--------|

D -------------------------------------------------------------------------------|
A ------------------------------------(5-6-5)------------------------------------|
F -------------------------------------------------------------------------------|
C -6-0-3-0-3-5-6-5-3-5--6-0-3-0-3-5--x-x-x--6-0-3-0-3-5-6-5-3-5-0-8-8-3-2--------|
G -6-0-3-0-3-5-6-5-3-5--6-0-3-0-3-5--x-x-x--6-0-3-0-3-5-6-5-3-5-0-8-8-3-2--------|
C -6-0-3-0-3-5-6-5-3-5--6-0-3-0-3-5--x-x-x--6-0-3-0-3-5-6-5-3-5-0-8-8-3-2--------|

Verse 2 (All bass until just before chorus)
D -----------------------------------------------------------------------------------|
A ------------------------------------------------------------10-10-10-10------------|
F ---------------------------------------------------------------9-9-9-9-------------|
C ----------------------------------------------------------------x-x-x-x------------|
G ----------------------------------------------------------------x-x-x-x------------|
C-----------------------------------------------------------------x-x-x-x------------|

Chorus
D -------------------------------------------------------------------------------|
A -------------------------------------------------------------------------------|
F -------------------------------------------------------------------------------|
C -6-0-3-0-3-5-6-5-3-5--6-0-3-0-3-5--x-x-x--6-0-3-0-3-5-6-5-3-5-0-8-8-3-2--------|
G -6-0-3-0-3-5-6-5-3-5--6-0-3-0-3-5--x-x-x--6-0-3-0-3-5-6-5-3-5-0-8-8-3-2--------|
C -6-0-3-0-3-5-6-5-3-5--6-0-3-0-3-5--x-x-x--6-0-3-0-3-5-6-5-3-5-0-8-8-3-2--------|

D -------------------------------------------------------------------------------|
A ------------------------------------(5-6-5)------------------------------------|
F -------------------------------------------------------------------------------|
C -6-0-3-0-3-5-6-5-3-5--6-0-3-0-3-5--x-x-x--6-0-3-0-3-5-6-5-3-5-0-8-8-3-2--------|
G -6-0-3-0-3-5-6-5-3-5--6-0-3-0-3-5--x-x-x--6-0-3-0-3-5-6-5-3-5-0-8-8-3-2--------|
C -6-0-3-0-3-5-6-5-3-5--6-0-3-0-3-5--x-x-x--6-0-3-0-3-5-6-5-3-5-0-8-8-3-2--------|


 Bridge 4x (3 and 4, dont palm mute)                                       (after fourth time)
D ---------------------------------------------------|-----------------------|
A ------------------8b-------------------------------|-----------------------|
F ----8------8------8b----8--------------------------| ----------------------|
C ----8------8------------8--------------------------|-----------------------|
G ----6------6------------6-------3-2-1-------------|-3-2-1------------------|
C -0----0--0---0-------0----0---0-------3-2-1-2-3---|--------3-2-1-2-3-------|
     *        *    *      *             *        *
Chorus
D -----------------------------------------------------------------------------------|
A -----------------------------------------------------------------------------------|
F -----------------------------------------------------------------------------------|
C -6-0-3-0-3-5-6-5-3-5--6-0-3-0-3-5-------------6-0-3-0-3-5-6-5-3-5-0-8-8-3-2--------|
G -6-0-3-0-3-5-6-5-3-5--6-0-3-0-3-5-------------6-0-3-0-3-5-6-5-3-5-0-8-8-3-2--------|
C -6-0-3-0-3-5-6-5-3-5--6-0-3-0-3-5-------------6-0-3-0-3-5-6-5-3-5-0-8-8-3-2--------|

D -------------------------------------------------------------------------------|
A ---------------------------------------------(5-6-5)---------------------------|
F -------------------------------------------------------------------------------|
C -6-0-3-0-3-5-6-5-3-5--6-0-3-0-3-5--x-x-x--6-0-3-0-3-5-6-5-3-5-0-8-8-3-2--------|
G -6-0-3-0-3-5-6-5-3-5--6-0-3-0-3-5--x-x-x--6-0-3-0-3-5-6-5-3-5-0-8-8-3-2--------|
C -6-0-3-0-3-5-6-5-3-5--6-0-3-0-3-5--x-x-x--6-0-3-0-3-5-6-5-3-5-0-8-8-3-2--------|

Outro
D ---------------------------------------------------------|
A ------------------8b-------------------------------------|
F ----8------8------8b----8--------------------------------|
C ----8------8------------8--------------------------------|
G ----6------6------------6---------3-2-1------------------|
C -0----0--0---0-------0----0---0--------- 3-2-1-2-3-------|
     *        *    *      *             *        *      *
D -----------------------------------------|
A ------------------8b---------------------|
F ----8------8------8b----8----------------|
C ----8------8------------8----------------|
G ----6------6------------6----------------|
C -0----0--0---0-------0----0---0-0-0------|
     *        *    *      *             *        *       *  *  *
The End! Enjoy! Rate and comment and let me know how Iím doing!

Note* The palm mute icon may not always line up just due to the changes that get made 
after submission. They go with the 0s :) Thanks!
Tap to rate this tab
# A B C D E F G H I J K L M N O P Q R S T U V W X Y Z