Song name
# A B C D E F G H I J K L M N O P Q R S T U V W X Y Z

Disciple - Collision tab

-------------------------------------------------------------------------------
                             COLLISION - Disciple
-------------------------------------------------------------------------------
Tabbed by: Matt Peters
E-mail: mitten_matt@hotmail.com

Hello everyone, I couldn't find a more accurate tab so I did my own. I think 
it's very close to bang on but if you have a suggestion let me know. :)

Tuning:DGCFAd

Intro/Verse

Guitar 1
d|--------------------------------|
A|--------------------------------|
F|--------------------------------|
C|---2---2-------------------\----|
G|-0---3-----2---2---2---2----}8x-|
D|---------3---3---3---3---3-/----|

Pre-Chorus

Guitar 2 (play on 7th and 8th time of first riff)
d|--------------------------------------|
A|--------------------------------------|
F|--------------------------------------|
C|-7-7-7-7-101010105-5-5-5-5-5-5-5-\----|
G|-7-7-7-7-101010105-5-5-5-5-5-5-5--}2x-|
D|-5-5-5-5-8-8-8-8-3-3-3-3-3-3-3-3-/----|

Chorus

Guitar 2
d|---------------------------------------------------------------|
A|---------------------------------------------------------------|
F|---------------------------------------------------------------|
C|-3---3---3---3---3---3---3---3---7---7---7---7---7---7---x---2-|
G|-3---3---3---3---3---3---3---3---7---7---7---7---7---7---x---2-|
D|-1---1---1---1---1---1---1---1---5---5---5---5---5---5---x---0-|

d|---------------------------------------------------------------|
A|---------------------------------------------------------------|
F|---------------------------------5---5---5---5-----------------|
C|-3---3---3---3---3---3---3---3---5---5---5---5---2---2---2---2-|
G|-3---3---3---3---3---3---3---3---3---3---3---3---2---2---2---2-|
D|-1---1---1---1---1---1---1---1-------------------0---0---0---0-|

Guitar 1
d|----------------------------------------------15-------------|
A|----------------------------------15h17-15h17----17-15-------|
F|-------------------------------------------------------17-16~|
C|-------------------------------------------------------------|
G|-------------------------------------------------------------|
D|-------------------------------------------------------------|

Verse 2

Guitar 1
d|--------------------------------|
A|--------------------------------|
F|--------------------------------|
C|---2---2-------------------\----|
G|-0---3-----2---2---2---2----}8x-|
D|---------3---3---3---3---3-/----|

Pre-Chorus

Guitar 2 (play on 7th and 8th time of first riff)
d|--------------------------------------|
A|--------------------------------------|
F|--------------------------------------|
C|-7-7-7-7-101010105-5-5-5-5-5-5-5-\----|
G|-7-7-7-7-101010105-5-5-5-5-5-5-5--}2x-|
D|-5-5-5-5-8-8-8-8-3-3-3-3-3-3-3-3-/----|

Chorus 2x

Guitar 2
d|---------------------------------------------------------------|
A|---------------------------------------------------------------|
F|---------------------------------------------------------------|
C|-3---3---3---3---3---3---3---3---7---7---7---7---7---7---x---2-|
G|-3---3---3---3---3---3---3---3---7---7---7---7---7---7---x---2-|
D|-1---1---1---1---1---1---1---1---5---5---5---5---5---5---x---0-|

d|---------------------------------------------------------------|
A|---------------------------------------------------------------|
F|---------------------------------5---5---5---5-----------------|
C|-3---3---3---3---3---3---3---3---5---5---5---5---2---2---2---2-|
G|-3---3---3---3---3---3---3---3---3---3---3---3---2---2---2---2-|
D|-1---1---1---1---1---1---1---1-------------------0---0---0---0-|

Guitar 1
d|----------------------------------------------15---------------|
A|----------------------------------15h17-15h17----17-15---------|
F|-------------------------------------------------------17-16~--|
C|---------------------------------------------------------------|
G|---------------------------------------------------------------|
D|---------------------------------------------------------------|

Bridge

Guitar 1
d|--------------------------------------------------------------------------|
A|--------------------------------------------------------------------------|
F|--------------------------------------------------------------------------|
C|-3-2-0-2---------3-2-0-2---------3-2-0-2---------3-2-0-2-----2---2-2---2-2|
G|-------------------------0-3-5---------------------------3-2-2---2-2---2-2|
D|---------0-3-5---------------------------0-3-5---------------0---0-0---0-0|

Guitar 2
d|--------------------------------------------------------------------------|
A|--------------------------------------------------------------------------|
F|-14(Palm muted trem. picking)---------------------------------------------|
C|--------------------------------------------------------------------------|
G|--------------------------------------------------------------------------|
D|--------------------------------------------------------------------------|

Tag

Guitar 1
d|---------------------------------------------|
A|---------------------------------------------|
F|---------------------------------------------|
C|---2---2-------------------\-------2---2-----|
G|-0---3-----2---2---2---2----}3x--0---3-----2-|
D|---------3---3---3---3---3-/-------------3---|

Chorus 2x

Guitar 2
d|---------------------------------------------------------------|
A|---------------------------------------------------------------|
F|---------------------------------------------------------------|
C|-3---3---3---3---3---3---3---3---7---7---7---7---7---7---x---2-|
G|-3---3---3---3---3---3---3---3---7---7---7---7---7---7---x---2-|
D|-1---1---1---1---1---1---1---1---5---5---5---5---5---5---x---0-|

d|---------------------------------------------------------------|
A|---------------------------------------------------------------|
F|---------------------------------5---5---5---5-----------------|
C|-3---3---3---3---3---3---3---3---5---5---5---5---2---2---2---2-|
G|-3---3---3---3---3---3---3---3---3---3---3---3---2---2---2---2-|
D|-1---1---1---1---1---1---1---1-------------------0---0---0---0-|

Guitar 1
d|----------------------------------------------15----------------|
A|----------------------------------15h17-15h17----17-15----------|
F|-------------------------------------------------------17-16-14-|
C|----------------------------------------------------------------|
G|----------------------------------------------------------------|
D|----------------------------------------------------------------|

Outro

Guitar 1
d|---------------------------------------|
A|---------------------------------------|
F|---------------------------------------|
C|---2---2---------------------2---2-----|
G|-0---3-----2---2---2---2---0---3-----2-|
D|---------3---3---3---3---3---------3---|

************************************

| /   slide up
| \   slide down
| h   hammer-on
| p   pull-off
| ~   vibrato
| +   harmonic
| x   Mute note
| b   Bend
| pb  Pre-bend
| br  Bend release
| pbr Pre-bend release
| brb Bend release bend

************************************
Tap to rate this tab
 
# A B C D E F G H I J K L M N O P Q R S T U V W X Y Z