Song name
# A B C D E F G H I J K L M N O P Q R S T U V W X Y Z

Disciple - 103 tab

This song is By Disciple, and it's from the album Back Again.
This is my first tab. The strumming patterns are left for you to figure out.
The song counts by 6 and 9. I hope that helps.
God save...the music.


103 by Disciple

BEGINNING NOTES

(PLAY THIS 8 TIMES.)

STAINED, WASH ME
D-----------------------|
A-----------------------|
F-----------------------|
C----2------------------|
G----2------------------|
C----0--------8-7-8-7-8-|


VERSE
D----------------------|
A----------------------|
F----------------------|
C----2-----------------|
G----2-----------------|
C----0-----------------|


"AS FAR AS THE EAST IS FROM THE WEST THAT IS HOW FAR YOU HAVE..."
D---------------------|
A---------------------|
F---------------------|
C---------------------|
G---------------------|
C----7-7-8-7-7-8-7----|

"THAT YOU HAVE REMOVED OUR TRANSGRESSION FROM US!"
(ADD DISTORTION)
D---------------------|
A---------------------|
F---------------------|
C---------------------|
G---------------------|
C----7-7-8-7-7-8-7----|


chours
D---------------------|
A---------------------|
F---------------------|
C----2----5----7----9-|
G----2----3----5----7-|
C----O----0----0----0-|

VERSE
D--------------------------|
A--------------------------|
F--------------------------|
C----2---------------------|
G----2---------------------|
C----0---------------------|


"AS FAR AS THE EAST IS FROM THE WEST THAT IS HOW FAR YOU HAVE..."
D---------------------|
A---------------------|
F---------------------|
C---------------------|
G---------------------|
C----7-7-8-7-7-8-7----|

"THAT YOU HAVE REMOVED OUR TRANSGRESSION FROM US!"
(MEGA DISTORTION)
D---------------------|
A---------------------|
F---------------------|
C---------------------|
G---------------------|
C----7-7-8-7-7-8-7----|

chours
D---------------------|
A---------------------|
F---------------------|
C----2----5----7----9-|
G----2----3----5----7-|
C----O----0----0----0-|


BRIDGE NOTES

D---------------------|
A---------------------|
F---------------------|
C---------------------|
G---------------------|
C----7-7-7-10-7-8-7---| PLAY THIS 8 TIMES

D---------------------|
A---------------------|
F---------------------|
C----9-10-------------|PLAY THIS 4 TIMES
G----9-10-------------|
C----7-8--------------|


chours

D---------------------|
A---------------------|
F---------------------|
C----2----5----7----9-|
G----2----3----5----7-|
C----O----0----0----0-|
Tap to rate this tab
 
# A B C D E F G H I J K L M N O P Q R S T U V W X Y Z