Song name
# A B C D E F G H I J K L M N O P Q R S T U V W X Y Z

Disciple - I Just Know tab

Band: Disciple
Song: I Just Know
Tabbed : Anto84

Video: http://it.youtube.com/watch?v=rUdXY7M7iGA


					(INTRO)



Eb|-------------------------------------------------|
Bb|-------------------------------------------------|
Gb|-------------------------------------------------|
Db|-0-0--0-0--0-0--0-0--0-0--0-0--0-0--0-0--0-0--3--|
Ab|-0-0--0-0--0-0--0-0--0-0--0-0--0-0--0-0--0-0--3--|
Db|-0-0--0-0--0-0--0-0--0-0--0-0--0-0--0-0--0-0--3--|

Eb|----------------------------------------------------|
Bb|----------------------------------------------------|
Gb|----------------------------------------------------|
Db|-0-0--0-0--0-0--0-0--0-0--0-0--0-0--0-0--0-0---12\--|
Ab|-0-0--0-0--0-0--0-0--0-0--0-0--0-0--0-0--0-0---12\--|
Db|-0-0--0-0--0-0--0-0--0-0--0-0--0-0--0-0--0-0---12\--|



Eb|------------------------------------------------------|
Bb|------------------------------------------------------|
Gb|------------------------------------------------------|
Db|-0-0--0-0--0-----0--0-0--0---0--0-0--0---0--0-0--0----|
Ab|-0-0--0-0--0-----0--0-0--0---0--0-0--0---0--0-0--0----|
Db|-0-0--0-0--0-----0--0-0--0---0--0-0--0---0--0-0--0----|


Eb|--------------------------------------------------------|
Bb|--------------------------------------------------------|
Gb|--------------------------------------------------------|
Db|-0--0-0--0---0--0-0--0---0--0-0--0---0--0-0--0---12\----|
Ab|-0--0-0--0---0--0-0--0---0--0-0--0---0--0-0--0---12\----|
Db|-0--0-0--0---0--0-0--0---0--0-0--0---0--0-0--0---12\----|


Eb|------------------------------|                      
Eb|------------------------------|
Bb|------------------------------|
Gb|------------------------------|
Db|--------3--0---0--0-0--0------| X3
Ab|--------3--0---0--0-0--0------|
Db|-6-5-4--3--0---0--0-0--0------|
     P.M.


Eb|---------------|
Bb|---------------|
Gb|---------------|
Db|--------3--0---| 
Ab|--------3--0---|
Db|-6-5-4--3--0---|
     P.M.

					(VERSE)


Eb|-------------------------------------------------------|
Bb|-------------------------------------------------------|
Gb|-------------------------------------------------------|
Db|-----3-3-3/5------3-3-3/5------3-3-3/5-------3-5-1-0---|  x2
Ab|-5~--3-3-3/5--5~--3-3-3/5--5~--3-3-3/5--5~---3-5-1-0---|
Db|-----3-3-3/5------3-3-3/5------3-3-3/5-------3-5-1-0---|



Eb|-------------------------------------------------------|
Bb|-------------------------------------------------------|
Gb|-------------------------------------------------------|
Db|-10--5-5/7--0--10--5-5/7--0--10--5-5/7---5--4--------0-|  x2
Ab|-8---3-3/5--0--8---3-3/5--0--8---3-3/5---3--2--------0-|
Db|------------0-------------0--------------------3-5-3-0-|



					(CHORUS)


Eb|-----------------------|
Bb|-----------------------|
Gb|-----------------------|
Db|-0-0-0--0-0--0--0-0----|  x4
Ab|-0-0-0--0-0--0--0-0----|
Db|-0-0-0--0-0--0--0-0----|
    P.M.    P.M.    P.M.

Eb|-----------------------|
Bb|-----------------------|
Gb|-----------------------|
Db|-0-0-0--0-0--0--0-0----|  x4
Ab|-0-0-0--0-0--0--0-0----|
Db|-0-0-0--0-0--0--0-0----|


Eb|-----|-------------------------------|                      
Eb|-----|-------------------------------|
Bb|-----|-------------------------------|
Gb|-----|-------------------------------|
Db|-\12-|---------3--0---0--0-0--0------| X3
Ab|-\12-|---------3--0---0--0-0--0------|
Db|-\12-|--6-5-4--3--0---0--0-0--0------|
           P.M.


					(VERSE)


Eb|-------------------------------------------------------|
Bb|-------------------------------------------------------|
Gb|-------------------------------------------------------|
Db|-----3-3-3/5------3-3-3/5------3-3-3/5-------3-5-1-0---|  x2
Ab|-5~--3-3-3/5--5~--3-3-3/5--5~--3-3-3/5--5~---3-5-1-0---|
Db|-----3-3-3/5------3-3-3/5------3-3-3/5-------3-5-1-0---|



Eb|--------------------------------------------------------|
Bb|--------------------------------------------------------|
Gb|--------------------------------------------------------|
Db|-10--5-5/7--0--10--5-5/7--0--10--5-5/7---5--4-----------|  x2
Ab|-8---3-3/5--0--8---3-3/5--0--8---3-3/5---3--2-----------|
Db|------------0-------------0--------------------3-5-3----|




					(CHORUS)


Eb|-----------------------|
Bb|-----------------------|
Gb|-----------------------|
Db|-0-0-0--0-0--0--0-0----|  x4
Ab|-0-0-0--0-0--0--0-0----|
Db|-0-0-0--0-0--0--0-0----|
    P.M.    P.M.    P.M.

Eb|-----------------------|
Bb|-----------------------|
Gb|-----------------------|
Db|-0-0-0--0-0--0--0-0----|  x4
Ab|-0-0-0--0-0--0--0-0----|
Db|-0-0-0--0-0--0--0-0----|


					(BRIDGE)




Eb|------------------------------------|
Bb|------------------------------------|
Gb|------------------------------------|
Db|-0--0--0--0--7--0-0-0--7--0-0-0-----| X3
Ab|-0--0--0--0--5--0-0-0--5--0-0-0-----|
Db|-0--0--0--0-----0-0-0-----0-0-0-----|
                    P.M       P.M.



Eb|-----------------------------------------------------|
Bb|-----------------------------------------------------|
Gb|-----------------------------------------------------|
Db|-0--0--0--0--7--0-0-0--7--0-0-0--7--0-0-0--7---12\---| 
Ab|-0--0--0--0--5--0-0-0--5--0-0-0--5--0-0-0--5---12\---|
Db|-0--0--0--0-----0-0-0-----0-0-0-----0-0-0------12\---|
                    P.M       P.M.

Eb|-------------------------|
Bb|-------------------------|
Gb|-------------------------|
Db|-0--9--10--12--7-xx------| repeat 
Ab|-0--7--8---10--5-xx------| 
Db|-0-----------------------|



Eb|-----------------------------------------10----------10--------10--------10----------|
Bb|-12~~---------------------------13h12h13-----13h12h13--13h12h13--13h12h13--13h12h13--|
Gb|-10~~--------10~----12b10r12b~-------------------------------------------------------|
Db|-------10h12-------------------------------------------------------------------------|
Ab|--------P.M--------------------------------------------------------------------------|
Db|-------------------------------------------------------------------------------------|


Eb|-10-10-10-10-10br12b----------|
Bb|------------------------------|
Gb|------------------------------|
Db|------------------------------|
Ab|------------------------------|
Db|------------------------------|


					(VERSE)

Eb|--------------------------------------------------------|
Bb|--------------------------------------------------------|
Gb|--------------------------------------------------------|
Db|-10--5-5/7--0--10--5-5/7--0--10--5-5/7---5--4-----------|  x2
Ab|-8---3-3/5--0--8---3-3/5--0--8---3-3/5---3--2------5~---|
Db|------------0-------------0--------------------3-5------|




					(CHORUS)


Eb|-----------------------|
Bb|-----------------------|
Gb|-----------------------|
Db|-0-0-0--0-0--0--0-0----|  x3
Ab|-0-0-0--0-0--0--0-0----|
Db|-0-0-0--0-0--0--0-0----|
    P.M.    P.M.    P.M.

Eb|-------------|
Bb|-------------|
Gb|--1~~--------|
Db|-------------|
Ab|-------------|
Db|-------------|

Eb|-----------------------|
Bb|-----------------------|
Gb|-----------------------|
Db|-0-0-0--0-0--0--0-0----|  x4
Ab|-0-0-0--0-0--0--0-0----|
Db|-0-0-0--0-0--0--0-0----|


					(ENDING)


Eb|-----|--------------------------------------------------|
Bb|-----|--------------------------------------------------|
Gb|-----|--------------------------------------------------|
Db|-\12-|--0-0--0-0--0-0--0-0--0-0--0-0--0-0--0-0--0-0--3--|  X2
Ab|-\12-|--0-0--0-0--0-0--0-0--0-0--0-0--0-0--0-0--0-0--3--|
Db|-\12-|--0-0--0-0--0-0--0-0--0-0--0-0--0-0--0-0--0-0--3--|




If there are any comments or errors 
e-mail me at antonioliviero84@virgilio.it
Tap to rate this tab
# A B C D E F G H I J K L M N O P Q R S T U V W X Y Z