Song name
# A B C D E F G H I J K L M N O P Q R S T U V W X Y Z

Disciple - Remembering tab

tune to drop c tunning (c, g, c, f, a, d,)


intro
|-------------------------------------------------------------------|
|-------------------------------------------------------------------|
|---------5-7-------------------------------------------------------|
|-----------------5-7-----------------------------------------------|
|-----5-7-----------------------------------------------------------|
|-0-0---------0-0-----0-0-------------------------------------------|

not perfect but you can figurre it out from this

the intrelude
|-------------------------------------------------------------------|
|-------------------------------------------------------------------|
|-------------------------------------------------------------------|
|-------------------------------------------------------------------|
|-0-0-2-2h3-3-3-2-0-2-2---------------------------------------------|
|-0-0-2-2h3-3-3-2-0-2-2---------------------------------------------|

then play this at the end
|-------------------------------------------------------------------|
|-------------------------------------------------------------------|
|-8-8-8-------------------------------------------------------------|
|-x-x-x-------------------------------------------------------------|
|-6-6-6-------------------------------------------------------------|
|-------------------------------------------------------------------|

then the verse
|-------------------------------------------------------------------|
|-------------------------------------------------------------------|
|----7------7-------------------------------------------------------|
|------3h5----3h5-7-7-7-5-------------------------------------------|
|-------------------------------------------------------------------|
|-0----------------------0------------------------------------------|

then pre-chourus
|--------------------------------------------------------------------|
|--------------------------------------------------------------------|
|---------------------------------8----------------------------------|
|---------------------------------X----------------------------------|
|---------------------------------6----------------------------------|
|--0-0-0-------------------0-0-0-----0-------------------------------|

if you dont know how to do a pinch harmonic just hit 12 on the top string,
but it sounds better if you hit the harmonic.

|-------------------------------------------------------------------|
|-------------------------------------------------------------------|
|-------8-8-8-8---------8-8-8-------8-8-8-8-------8-8-8-------------|
|-------x-x-x-x---------x-x-x-------x-x-x-x-------x-x-x-------------|
|-------6-6-6-6---------6-6-6-------6-6-6-6-------6-6-6-------------|
|-0-0-------------0-0----------0-0-----------0-0--------------------|
Tap to rate this tab
 
# A B C D E F G H I J K L M N O P Q R S T U V W X Y Z