Song name
# A B C D E F G H I J K L M N O P Q R S T U V W X Y Z

Disciple - Thousand Things tab

tune down half a step

------------------------------------------------------------------------------|
-----------10----------------------------10-----------------------------------|
-11--11-11----12-11-9---9-11-12-11b12r11----12-11-9---------------------------|
------------------------------------------------------------------------------|
------------------------------------------------------------------------------|
------------------------------------------------------------------------------|


------------------------------------------------------------------------------|
------------------------------------------------------------------------------|
-9-11-12-12p11---12p11---12p11------------------------------------------------|
--------------12------12------12-12/14----------------------------------------|
------------------------------------------------------------------------------|
------------------------------------------------------------------------------|


---------10--10-10-12b14--14-14r12--------------------------------------------|
------------------------------------7-----------------------------------------|
-9-11-12----------------------------9b11-11-9-11p9----------------------------|
---------------------------------------------------9--------------------------|
------------------------------------------------------------------------------|
------------------------------------------------------------------------------|
Tap to rate this tab
# A B C D E F G H I J K L M N O P Q R S T U V W X Y Z