Song name
# A B C D E F G H I J K L M N O P Q R S T U V W X Y Z

Disciple - Worth It All tab

NOTES: Drop C tunning, Drop D tunned down one whole step.


INTRO: play octave chords first, then powerchords when bass and drums enter.

d------------------------------------------------|
a------------------------------------------------|
f-5555--7777--99999999--5555--7777---------------|
c-XXXX--XXXX--XXXXXXXX--5555--7777--2-----2-0----|
g-3333--5555--77777777--3333--5555--2-----2-0----|
C-----------------------------------2hold-2-0hold|

VERSE: Clean

d-----------------------------|
a-----------------------------|
f---9hold---7hold---5hold---9-|
c--9-------7-------5-------9--|
g-7-------5-------3-------7---|
C-----------------------------|

PRE CHORUS: Distorted

d------------------|
a------------------|
f------------------|
c------------------|
g-2p0-2p0-22p0-2-0-|
C-2p0-2p0-22p0-2-0-|

CHORUS:

d----------------------|
a----------------------|
f-5555--7777--99999999-|
c-5555--7777--99999999-|
g-3333--5555--77777777-|
C----------------------|

Pre Chorus riff
Verse riff
Pre Chorus riff
Chorus

BRIDGE:

d-----------------------------------------------|
a-----------------------------------------------|
f---9---9---7---7--9999-7777--------------------|
c--9---9---7---7---9999-7777------9p7------9p7--|
g-7---7---5---5----7777-5555--7-7------7-7------|
C-----------------------------------------------|

Chorus
end with Pre Chorus riff.
Tap to rate this tab
# A B C D E F G H I J K L M N O P Q R S T U V W X Y Z