Guitaretab - guitar tabs
Song name
# A B C D E F G H I J K L M N O P Q R S T U V W X Y Z

Disciple - My Hell tab

-------------------------------------------------------------------------------
			     My Hell - Disciple
-------------------------------------------------------------------------------
Tabbed by:cjb2293
Tuning: Drop D

This is what i have for now, when i figure out more i'll put it up!

Intro:
Guitar 2 (distorted)
E-------------------------------------------------------------------------|x2
B-------------------------------------------------------------------------|
G-------------------------------------------------------------------------|
D-0------------------8---------------3-----------------6------------------|
A-0------------------8---------------3-----------------6------------------|
D-0------------------8---------------3-----------------6------------------|

Guitar 1 (distorted)
E---------------------------------------------------------------------------|
B-----13-16-----16---18-----18-----18--21-----21-----21--20-----20-----20---|
G13-15-----15-13--15---17-15--17-15--17--20-17--20-17--17--20-17--20-17--20-|
D---------------------------------------------------------------------------|
A---------------------------------------------------------------------------|
D---------------------------------------------------------------------------|
[ Tab from: http://www.guitaretab.com/d/disciple/81802.html ]
Guitar 1 (cont)
E--------------------------------------------------------------------------|
B-----13-16-----16---18-----18-----18--21-----21-----21--20-----20-----20~~|
G13-15-----15-13--15---17-15--17-15--17--20-17--20-17--17--20-17--20-17----|
D--------------------------------------------------------------------------|
A--------------------------------------------------------------------------|
D--------------------------------------------------------------------------|

Verse
Guitar 2 (clean)
E-------------------------------------------------------------------------|x4
B-------------------------------------------------------------------------|
G-------------------------------------------------------------------------|
D-0------------------8---------------3-----------------6------------------|
A-0------------------8---------------3-----------------6------------------|
D-0------------------8---------------3-----------------6------------------|

Guitar 1 (Palm Muted) (comes in after two times of guitar 2)
E------------------------------------------------------------------|x2
B------------------------------------------------------------------|
G----5-8---8-10----10----10--13-----13-----13--12-----12-----12----|
D-6-8---8-6-8--10-8--10-8--10--13-10--13-10--13--13-10--13-10--13--|
A------------------------------------------------------------------|
D------------------------------------------------------------------|
Related for My Hell tab
Advertisement will be closed in 10 seconds