Song name
# A B C D E F G H I J K L M N O P Q R S T U V W X Y Z

Disciple - Worship Conspiracy tab

Song:Worship Conspiracy
  Band:Disciple
  CD:This Might Sting A Little
  Copyright:c 1999 Rugged Records
  Tabbed by Ed Morones


   INTRO:Pick this first part right next to bridge.
    *-slightly bend string behind nut or pull up on trem. bar
  e--------------------------------------------------------------|
  B--------------------------------------------------------------|
  G--------------------------------------------------------------|
  D------2--------2--------2--------------2--------2--------2----|
  A---------------------------------5b6--------------------------|
  E---0-0-0--0-0-0-0--0-0-0-0--0-0-0---0-0-0--0-0-0-0--0-0-0-0---|

  e|--------------------------------------|
  B|--------------------------------------|
  G|.------------------------------------.|
  D|.-----2--------2--------2--------5~~-.|
  A|---2-2-2--2-2-2-2--2-2-2-2--2-2-25~~--|
  E|---0-0-0--0-0-0-0--0-0-0-0--0-0-0-----|


    VERSE:
                   play this set
                   next to bridge  This is the fill in verse 2
  e---------------|-------------|-|----------|
  B---------------|-------------|-|----------|
  G---------------|-------------|-|--p.m....-|
  D---------------|-------------|-|--0-2-----|
  A----2-2--2-2---|--2-2--2-2---|-|--0-2-3---|
  E----0-0--0-0---|--0-0--0-0---|-|------3---|

   PRE-CHORUS:
     pray to buddha everyday  etc.
  e----------------------------|
  B----------------------------|play this 4x's after 4th time
  G--p.m.....0-----p.m........-|long slide on E str.from 12th
  D--2-2-2-2-0--2--2-2-2-2-2-2-|fret.
  A--2-2-2-2-x--2--2-2-2-2-2-2-|
  E--0-0-0-0-3--0--0-0-0-0-0-0-|



    CHORUS:

     God        deserves      more than what we're giving Him
  e-----------------------------------------------------------|
  B-----------------------------------------------------------|
  G--2--x-x-x-x-x-5-----x-x-x-x-7---x--x--x--x--x--x--x--x----|
  D--2--x-x-x-x-x-5-----x-x-x-x-7---x--x--x--x--x--x--x--x----|
  A--0--x-x-x-x-x-3-----x-x-x-x-5---x--x--x--x--x--x--x--x----|
  E-----------------------------------------------------------|
  1The 1st time play one time then go back to intro and then 2nd verse.
  2The 2nd time play two times and add fill at end of chorus before
   going to bridge.
    FILL:
  e----------------------------------|
  B----------------------------------|
  G--use alternate picking-----------|
  D--p.m............................-|
  A--2-2-2-2-2-2-2-2-2-3-2-3-2-3-2-3-|
  E----------------------------------|

    BRIDGE:
       Worthy every knee will bow tongue confessthat Jesus is Lord
  e---------------------------------------------------------------|
  B---------------------------------------------------------------|
  G-p.m..---------------------------------------------------------|
  D------0--2-------------------------------2---------------------|
  A------0--2-------------------------------2---------------------|
  E-0000-------0-0-0-0-0-0-0-0-0-0-0-0--------0-0-0-0-0-0-0-0-0-0-|
  +you must hear the song to get the idea here on the bridge.
   Anyway play this two times then go to solo.


   SOLO:
  e|-7-7-7-7-7-7-7-7-9-9-9-9-9-9-9-9-7-7-7-7-9-9-9-9-10-10-10-10-|
  B|-7-7-7-7-7-7-7-7-9-9-9-9-9-9-9-9-7-7-7-7-9-9-9-9-10-10-10-10-|
  G|.-----------------------------------------------------------.|
  D|.-----------------------------------------------------------.|
  A|-------------------------------------------------------------|
  E|-------------------------------------------------------------|
  +After solo play pre-chorus,chorus 2x's,and bridge 2x's
   then go to ending


   ENDING:
  e|---------------|----------------|
  B|---------------|----------------|
  G|.--------------|---------------.|
  D|.--2-2--2-2----|----2-2--2-2---.|
  A|---2-2--2-2----|----2-2--2-2----|
  E|---0-0--0-0----|----0-0--0-0----|




   ***NOTE***

  e|----------------------|In case you don't know when tab is written
  B|----------------------|inside the lines with dots it means repeat.
  G|.--------------------.|
  D|.--------------------.|
  A|----------------------|
  E|----------------------|

    Any Q's or com's email Ed at
    5150rocker@sbcglobal.net
Tap to rate this tab
# A B C D E F G H I J K L M N O P Q R S T U V W X Y Z