Song name
# A B C D E F G H I J K L M N O P Q R S T U V W X Y Z

Disciple - No End At All tab

SONG: NO END AT ALL
BAND: DISICPLE
ALBUM: SCARS REMAIN

TUNING: DROP D (D A D G B E)

KEY: h - HAMMER ON
     fb - FULL BEND (WHOLE STEP)
     eb - END BEND

INTRO
E[-----------------------]
B[O---------------------O]
G[---5---5---------5-----]
D[---5-5---5-----5---5---]
A[O--5---------3--------O]
D[---5---------3---------]

PRE CHORUS
E[-----------------------]
B[O---------------------O]
G[-----------------------]
D[-------7---------7-----]
A[O----5---5-----5---5--O]
D[---0---------5---------]

CHORUS
E[-----------------------------]
B[O---------------------------O]
G[-----------------------------]
D[---0--7--9--7---0--7--9--5---]
A[O--0--7--9--7---0--7--9--5--O]
D[---0--7--9--7---0--7--9--5---]

SOLO
E[--------------------------------------------------------|
B[---------------------10~~~-------10-------10------------|
G[----------7h9-7~~~----------6-7------6-7----------------|
D[------7h9-------------------------------------7h9-7~~~--|
A[--7h9---------------------------------------------------|
D[--------------------------------------------------------|

E[------------------------------------------------------------------------|
B[----------------------------------10---------------------------10-------|
G[--9fb------------7h9--9~~~---9fb------9eb--------7h9--9---9fb------9eb--|
D[------------7h9-----------------------------7h9-------------------------|
A[-------7h9--------------------------------------------------------------|
D[------------------------------------------------------------------------|

E]-----------------------------10--12fb--12fb--12fb--12fb--10~~~--]
B]---------------10fb--10h12--------------------------------------]
G]-------7h9--7---------------------------------------------------]
D]--7h9-----------------------------------------------------------]
A]----------------------------------------------------------------]
D]----------------------------------------------------------------]

CHORUS

PRE CHORUS
Tap to rate this tab
# A B C D E F G H I J K L M N O P Q R S T U V W X Y Z