Song name
# A B C D E F G H I J K L M N O P Q R S T U V W X Y Z

Discipline - Rejects Of Society chords

Highlighted       Show chord diagrams
this is my first tab so don't put a bullet in my head if it ain't right
Tabbed by DocterRock

Artist: Discipline
Song: Rejects of Society
Album: Love Thy Neighbor

Intro: B,F#,C#,E X2

Riff 1: X4
B                               F#
e---------------------------------------------|
B-------4-5-7-7-7-9-7-5-4-4-5-4---------------|
G-4-4-6-------------------------4-6-6-6-8-6-4-|
D---------------------------------------------|
A---------------------------------------------|
E---------------------------------------------|


Verse 1
B
I see them look at me
F#
When Iím passing by
B
I see their faces turn
F#         E        D# C#
I see them wondering why
B
When Iím walking down the street
F#
They see my scarred-up face
B
Its the cross I bear, I stand on trial
F#        E         D# C#
Every fucking day

Riff 1 X2

Verse 2
B
When were walking down the road,
F#
With our tattooed arms and rings in our ears
B
Theyíre just afraid of the unknown
F#                            E    D# C#
They try to blame us for their fears
B
So why should I even try?
F#
WhatĎs the use anyway?
B
Youíll never know what itís like
F#                     E    D# C#
To be convicted every day

Chorus
B               F#         C#                  E
You will never understand, that this is the way itís gotta be
B               F#         C#                  E F#
You will never understand, what this life means to me
B            F#          B                   F#  
 D# C#
Means to me, Means to me, Means to me, to me, to me! Oi!


Riff 1 X2


Verse 3
B
I see them point their fingers
F#
They call us the enemy
B
The media likes to portrait us as
F#           E      D# C#
The rejects of society
B
Youíre just looking for a scapegoat
F#
Someone who can easily be blamed
B
But Iíll never except my part
F#                       E    D# C#
To be crucified for their mistakes

Chorus X1

Riff 1 X2

Solo X4 (not right but I did my best)
B                       F#
e------------------------------------------|
B--------------------------45-77-55-44-----|
G-4-4-^6^6-4-4-^6^6-4-4-6-------------64---|
D------------------------------------------|
A------------------------------------------|
E------------------------------------------|
Tap to rate this tab
 
# A B C D E F G H I J K L M N O P Q R S T U V W X Y Z