Song name
# A B C D E F G H I J K L M N O P Q R S T U V W X Y Z

Disclose - But Still Work tab

-------------------------------------------------------------------------------
But Still Work (Victims Of The Mine) - Disclose
Yesterday's Fairytale, Tomorrow's Nightmare
-------------------------------------------------------------------------------
Tabbed by: axeslash
Email: holmzito@yahoo.com

Tuning: 1 and a half steps down (C#F#B#E#G#C#)

e|--------------------------------------------------------|
B|--------------------------------------------------------|
G|--------------------------------------------------------|
D|-2--3-3---3--3--3--3--3--2--2-2-2-2-2-2-2-2-2-2-2-2-2-2-|
A|-2--3-3---3--3--3--3--3--2--2-2-2-2-2-2-2-2-2-2-2-2-2-2-|
E|-0--1-1---1--1--1--1--1--0--0-0-0-0-0-0-0-0-0-0-0-0-0-0-| x8
                             [X-X-X-X-X-X-X-X-X-X-X-X-X-X]

e|-------------------------------------------------|
B|-------------------------------------------------|
G|-------------------------------------------------|
D|-3--3-3--3-3-3-6--6-6--6-6-6-2v--------v-v-------|
A|-3--3-3--3-3-3-6--6-6--6-6-6-2v--------v-v-------|
E|-1--1-1--1-1-1-4--4-4--4-4-4-0v--------v-v-------| x3

e|--------------------------------------------------------|
B|--------------------------------------------------------|
G|--------------------------------------------------------|
D|-2--3-3---3--3--3--3--3--2--2-2-2-2-2-2-2-2-2-2-2-2-2-2-|
A|-2--3-3---3--3--3--3--3--2--2-2-2-2-2-2-2-2-2-2-2-2-2-2-|
E|-0--1-1---1--1--1--1--1--0--0-0-0-0-0-0-0-0-0-0-0-0-0-0-| x6
                             [X-X-X-X-X-X-X-X-X-X-X-X-X-X]

e|-------------------------------------------------|
B|-------------------------------------------------|
G|-------------------------------------------------|
D|-3--3-3--3-3-3-6--6-6--6-6-6-2v--------v-v-------|
A|-3--3-3--3-3-3-6--6-6--6-6-6-2v--------v-v-------|
E|-1--1-1--1-1-1-4--4-4--4-4-4-0v--------v-v-------| x3

Lead Guitar:
e|---------------------------------------------------------------------------------------------------|
B|/18-18-18-18-18-18-18-18-/18-18-18-18-18-18-18-18-/17-17-17-17-17-17-17-17-/17-17-17-17-17-17-17-17|
G|---------------------------------------------------------------------------------------------------|
D|---------------------------------------------------------------------------------------------------|
A|---------------------------------------------------------------------------------------------------|
E|---------------------------------------------------------------------------------------------------|
Rhythm Guitar:
e|--------------------------------------------------------|
B|--------------------------------------------------------|
G|--------------------------------------------------------|
D|-2--3-3---3--3--3--3--3--2--2-2-2-2-2-2-2-2-2-2-2-2-2-2-|
A|-2--3-3---3--3--3--3--3--2--2-2-2-2-2-2-2-2-2-2-2-2-2-2-|
E|-0--1-1---1--1--1--1--1--0--0-0-0-0-0-0-0-0-0-0-0-0-0-0-|
                             [X-X-X-X-X-X-X-X-X-X-X-X-X-X]

Lead Guitar:
e|---------------------------------------------------16------------------------------|
B|-/18-18-18-18-18-18-18-18-/18-18-18-18-18-18-18-18-----14-17-14-17-14-17-18--------|
G|-----------------------------------------------------------------------------------|
D|-----------------------------------------------------------------------------------|
A|-----------------------------------------------------------------------------------|
E|-----------------------------------------------------------------------------------|
Rhythm Guitar:
e|--------------------------------------------------------|
B|--------------------------------------------------------|
G|--------------------------------------------------------|
D|-2--3-3---3--3--3--3--3--2--2-2-2-2-2-2-2-2-2-2-2-2-2-2-|
A|-2--3-3---3--3--3--3--3--2--2-2-2-2-2-2-2-2-2-2-2-2-2-2-|
E|-0--1-1---1--1--1--1--1--0--0-0-0-0-0-0-0-0-0-0-0-0-0-0-|
                             [X-X-X-X-X-X-X-X-X-X-X-X-X-X]

Lead Guitar:
e|---------------------------------------------------------------------------------------------------|
B|/18-18-18-18-18-18-18-18-/18-18-18-18-18-18-18-18-/17-17-17-17-17-17-17-17-/17-17-17-17-17-17-17-17|
G|---------------------------------------------------------------------------------------------------|
D|---------------------------------------------------------------------------------------------------|
A|---------------------------------------------------------------------------------------------------|
E|---------------------------------------------------------------------------------------------------|
Rhythm Guitar:
e|--------------------------------------------------------|
B|--------------------------------------------------------|
G|--------------------------------------------------------|
D|-2--3-3---3--3--3--3--3--2--2-2-2-2-2-2-2-2-2-2-2-2-2-2-|
A|-2--3-3---3--3--3--3--3--2--2-2-2-2-2-2-2-2-2-2-2-2-2-2-|
E|-0--1-1---1--1--1--1--1--0--0-0-0-0-0-0-0-0-0-0-0-0-0-0-|
                             [X-X-X-X-X-X-X-X-X-X-X-X-X-X]

Lead Guitar:
e|---------------------------------------------------16------------------------------|
B|-/18-18-18-18-18-18-18-18-/18-18-18-18-18-18-18-18-----14-17-14-17-14-17-18--------|
G|-----------------------------------------------------------------------------------|
D|-----------------------------------------------------------------------------------|
A|-----------------------------------------------------------------------------------|
E|-----------------------------------------------------------------------------------|
Rhythm Guitar:
e|--------------------------------------------------------|
B|--------------------------------------------------------|
G|--------------------------------------------------------|
D|-2--3-3---3--3--3--3--3--2--2-2-2-2-2-2-2-2-2-2-2-2-2-2-|
A|-2--3-3---3--3--3--3--3--2--2-2-2-2-2-2-2-2-2-2-2-2-2-2-|
E|-0--1-1---1--1--1--1--1--0--0-0-0-0-0-0-0-0-0-0-0-0-0-0-|
                             [X-X-X-X-X-X-X-X-X-X-X-X-X-X]

e|--------------------------------------------------------|
B|--------------------------------------------------------|
G|--------------------------------------------------------|
D|-2--3-3---3--3--3--3--3--2--2-2-2-2-2-2-2-2-2-2-2-2-2-2-|
A|-2--3-3---3--3--3--3--3--2--2-2-2-2-2-2-2-2-2-2-2-2-2-2-|
E|-0--1-1---1--1--1--1--1--0--0-0-0-0-0-0-0-0-0-0-0-0-0-0-| x6
                             [X-X-X-X-X-X-X-X-X-X-X-X-X-X]

e|-------------------------------------------------|
B|-------------------------------------------------|
G|-------------------------------------------------|
D|-3--3-3--3-3-3-6--6-6--6-6-6-2v--------v-v-------|
A|-3--3-3--3-3-3-6--6-6--6-6-6-2v--------v-v-------|
E|-1--1-1--1-1-1-4--4-4--4-4-4-0v--------v-v-------| x3

e|--------------------------------------------------------|
B|--------------------------------------------------------|
G|--------------------------------------------------------|
D|-2--3-3---3--3--3--3--3--2--2-2-2-2-2-2-2-2-2-2-2-2-2-2-|
A|-2--3-3---3--3--3--3--3--2--2-2-2-2-2-2-2-2-2-2-2-2-2-2-|
E|-0--1-1---1--1--1--1--1--0--0-0-0-0-0-0-0-0-0-0-0-0-0-0-| x6
                             [X-X-X-X-X-X-X-X-X-X-X-X-X-X]

e|-------------------------------------------------|
B|-------------------------------------------------|
G|-------------------------------------------------|
D|-3--3-3--3-3-3-6--6-6--6-6-6-2v--------v-v-------|
A|-3--3-3--3-3-3-6--6-6--6-6-6-2v--------v-v-------|
E|-1--1-1--1-1-1-4--4-4--4-4-4-0v--------v-v-------| x3

e|----------------------------------------------|
B|----------------------------------------------|
G|----------------------------------------------|
D|-3--3-3--3-3-3-6--6-6--6-6-6-2----------------|
A|-3--3-3--3-3-3-6--6-6--6-6-6-2----------------|
E|-1--1-1--1-1-1-4--4-4--4-4-4-0----------------|


|[x] palm mute
| V  whammy bar dip
| /  slide up
| \  slide down
| h  hammer-on
| p  pull-off
| ~  vibrato
| +  harmonic
| x  Mute note
=============================================================================
Tap to rate this tab
 
# A B C D E F G H I J K L M N O P Q R S T U V W X Y Z