Song name
# A B C D E F G H I J K L M N O P Q R S T U V W X Y Z

Disclose - Crawling Chaos tab

-------------------------------------------------------------------------------
Disclose - Crawling Chaos

-------------------------------------------------------------------------------
Tabbed by: Osok & Matus
Note : No solo 

VERSE
e|--------------------------------------------------------|
B|--------------------------------------------------------|
G|----------------------------4--4-4--4-4--6--6-6--6-6----|
D|-6--4-4--4-4---6--4-4--4-4--4--4-4--4-4--6--6-6--6-6----|
A|-6--4-4--4-4---6--4-4--4-4--2--2-2--2-2--4--4-4--4-4----|
E|-4--2-2--2-2---4--2-2--2-2------------------------------| 
                             
CHORUS
E|-------------------------------------------------|
B|-------------------------------------------------|
G|-7-6-4-------------------------------------------|
D|-7-6-4--4--4-4--4-4------------------------------|
A|-5-4-2--4--4-4--4-4------------------------------|
E|--------2--2-2--2-2------------------------------| 

SONG: Verse  7x
      Chorus 4x
      Verse  5x
      Chorus 4x
      Solo 
      Verse  5x
      Chorus 4x
      Verse  6x
      Chorus 4x

Tap to rate this tab
 
# A B C D E F G H I J K L M N O P Q R S T U V W X Y Z