Song name
# A B C D E F G H I J K L M N O P Q R S T U V W X Y Z

Disclosure - Latch Acoustic tab

-------------------------------------------------------------------------------
			     Sam Smith - Latch Acoustic
-------------------------------------------------------------------------------
Tabbed by: Moey Ohh
E-mail: chrismosses@gmail.com

Tuning: Standard - Capo 1st Fret

e|--3----3---3--3----3----3----3---3--3----3---3----3---3--3---3----3--------|
B|--3----3---3--3----3----3----3---3--3----3---3----3---3--3---3----3--------|
G|--0----0---0--0----0----0----0---0--0----0---0----0---0--0---0----0--------|
D|---------------------------------------------------------------------------|
A|-----------------------------------------2---3---------------2-------------|
E|--3----------------2----0-----------------------------------------3--------|

e|---3---3--3----3-----------------------------------------------------------|
B|---3---3--3----3-----------------------------------------------------------|
G|---0---0--0----0-----------------------------------------------------------|
D|---------------------------------REPEAT FOR THE VERSES---------------------|
A|---------------------------------------------------------------------------|
E|-----------------USE CHORDS FOR THE CHORUS AS PER THE SONG (see below)|


                                    (G....F#  Em.......C.....B..G)
Tap to rate this tab
 
# A B C D E F G H I J K L M N O P Q R S T U V W X Y Z