Song name
# A B C D E F G H I J K L M N O P Q R S T U V W X Y Z

Disco Biscuits - Magellan tab

Magellan by The Disco Biscuits
Written by Jon "The Barber" Gutwillig
Tabbed by Rich Steele
Cleaned up by thediscobiscuit

Intro
E|-----0----------------------|
B|-------1------0-1-1---------|
G|---2----2----2--------------|
D|--2---------2----------0-0--|
A|0---------------------3-2-0-|
E|----------------------------|

After about 4 of the above, do this)
                            F    Am
E|-----0--0----0----0-------1-1--5-| 
B|----1-----1----1----1-----1-1--5-| (strum 4  
G|---2-------2----2----2----2-2--5-|   times)
D|--2-----------------------3-3--2-|
A|-0------------------------3-3--0-|
E|--------------------------1-1----|

(main verse riff, which just repeats throughout the verses)
        Am             Am            G     Am
Well the waves makes mountains, life sails with 

E|--------------------------------------------|
B|-------1-------------10------------8-----10-|
G|-------2--------------9------------7------9-|
D|-------2-------------10------------9-----10-|
A|-------0------------------------------------|            
E|--------------------------------------------|

   C               Fmaj7
  ease. as the wind gathers firmly in my canopy.

E|-------------------5-|
B|-8-----------------5-|
G|-9-----------------5-|  (gently
D|-10----------------3-|   strum) 
A|---------------------|
E|---------------------|

The Magellan "and we fly..." chord.

E|-0-|
B|-4-|
G|-2-|
D|-3-|
A|-3-|
E|---|

(at the end of each verse, hit a open E major. after the end of the 2nd
verse, hit the E and go into this next part)

   D  E  G   A                    E A D 
E|--------------------------------------|                                 
B|-3--5--3---5-5--5-5-5-5--5-5-5--5-5-3-|
G|-2--4--4---6-6--6-6-6-6--6-6-6--4-6-2-|
D|-4--6--5---7-7--7-7-7-7--7-7-7--6-7-4-|
A|-----------7-7--7-7-7-7--7-7-7--------|
E|--------------------------------------|

   G                    D  G  E               
E|------------------------------|  
B|-3-3--3-3-3-3--3-3-3--3--3--5-|
G|-4-4--4-4-4-4--4-4-4--2--4--4-|
D|-5-5--5-5-5-5--5-5-5--4--5--6-|
A|-5-5--5-5-5-5--5-5-5----------|
E|------------------------------|

E|------------------------------------|
B|-7-7--5--5-5-5--3--3-3-3-3--3~--3-3-|
G|-6-6--6--6-6-6--5--5-5-5-5--4~--4-4-|
D|-7-7--6--6-6-6--5--5-5-5-5--5~--5-5-|
A|------------------------------------|
E|------------------------------------|

(repeat)

(Then, go back and play the beginning intro riff 3 times, then go into this next part)
   Am              F#m            Am
E|----0------------2------------------0-----|
B|------1---0-1-3---2--2-----2-2--------1---|
G|--2----2--2--------2--2---2--------2----2-|
D|-2---------------------4--4-------2-------|
A|0--------------------------------0--------|
E|------------------------------------------|


         F#m          G
E|-------2----------------3-------3------|
B|0-1-3---2--2----2-2----3--3---3--3---3-|
G|2--------2--2--2------4----4--4---4-4--|
D|-------------4-4-----5--------5--------|
A|---------------------------------------|
E|---------------------------------------|

   F#m             G
E|----2----2------------3------3-------|
B|_--2-2--2--2---2-----3--3---3--3-----|
G|--2---2-2---2-2-----4----4--4---4-4--|
D|-4------4----------5--------5--------|
A|-------------------------------------|
E|-------------------------------------|

   F#m      F         
E|-------2---------1-|
B|-----2---------1---|
G|---2---------2-----|
D|-4---------3-------|
A|-------------------|
E|-------------------|

(then you do these like vamp/arpeggio sort of things on a open E and a 
F on the 1st fret in this order: E > F > E > F)
(then comes the last part of this section)
  C                       Bm    Bb     Asus2
E|------0---------------------2-----3--------|
B|--------1----1-1----0-1----3-----3-------0-|
G|----0-----0--0--0---0-0---4-----3-------2--| 
D|--2----------2---2--2-2--4-----1-------2---|
A|3-------------------------------------0----|
E|-------------------------------------------|

(then, gently strum that Asus2 chord a few times, then do this)
  F         Am
E 1 1 1 1   5 5 5 5 
B 1 1 1 1   5 5 5 5 
G 2 2 2 2   5 5 5 5 
D 3 3 3 3   2 2 2 2 
A 3 3 3 3   0 0 0 0
E 1 1 1 1    

(then play that same chord progression that goes with the verses, 
but faster and with more authority)(after that part os finished, hit a open E major 
and the main E riff below is played 4 times. There is no set amount of beats for when 
you play the riff. Its freetime I suppose...)                 
main E riff--
E|---4-7-4-----------------|
B|--5-----5-5--4-5-7-----9-| (play some sort 
G|-4----------4----------9-| of E chord or note)
D|-----------------------9-|
A|-------------------------|
E|-------------------------|

Then, after the above riff was played 4 times, go right in this next part, 
which is the riff from above, but with more notes added to it.
(sec. 1)
E|--4-7-4-----------------------------|   E|-------------------|
B|-5------5-5--4-5-7-7-7p5-7-7/8 10p8-|   B|-10p8-8--7-8p7-4~~-|
G|4----------4------------------------|   G|-------------------|
D|------------------------------------|   D|-------------------|
A|------------------------------------|   A|-------------------|
E|------------------------------------|   E|-------------------|

(sec. 2)
E|----7~-9-9-9p7---7-9/10 10p8p7-| 
B|7-9-----------9----------------|
G|-------------------------------|
D|-------------------------------|
A|-------------------------------|
E|--------------------------------

E|7(8)-(trills)-8~~-10p8 10p8 8~~-7-8p7----|
B|--------------------------------------9~-|
G|-----------------------------------------|
D|-----------------------------------------|
A|-----------------------------------------|
E|-----------------------------------------|

(Sec. 3)
E|-----16-19-16-----------------| E|------------------------------------|
B|---17---------17-17--16-17-19-| B|19p17-17-17-19-19/20-22p20-22p20-20-|
G|-16----------------16---------| G|------------------------------------|
                               
E-----------------|
B|-19-20p19--16~~-|

(final chorus) 
 play a D > E > G and then go into......

One with the raging winds, alive on the highest tide
   A                       Ao
E|----------------------------|
B|-5------------------------5-|
G|-6------------------------4-|
D|-7------------------------7-|
A|-7------------------------7-|
E|----------------------------|

My ship at sail, could climb a mountain.
   D
E|---|
B|-7-|
G|-7-|
D|-7-|
A|-5-|
E|---|

Ride it to the sky..
   D  E  G  A
E|------------|
B|-3--5--3--5-|
G|-2--4--4--6-|
D|-4--6--5--7-|
A|-------5--7-|
E|------------|

Slow ending riff
E|-------------------------------------0-------------------|
B|------2-2---------0----------------0---0-----------------|
G|----2-----------2---2------------0-------0---------0-2-2-|
D|--2-----------2-------2--------2-----------2-----2-------|
A|0-----------0------------2---4-----------------4---------|
E|----------------------------5-----------------5----------|
Tap to rate this tab
# A B C D E F G H I J K L M N O P Q R S T U V W X Y Z