Song name
# A B C D E F G H I J K L M N O P Q R S T U V W X Y Z

Disco Biscuits - Halekala Crater tab

Halekala Crater by The Disco Biscuits
Written by Jon "The Barbar" Gutwillig
Album: They Missed The Perfume

Intro: 

E|-10--10-12h14p12--------|-10-10-12h14p12---------|-10-10-10-------------10--10-10-|
B|---12-------------------|---12-------------------|---12------12p10h12---12--------|
G|------------------------|------------------------|--------------------------------|
D|------------------------|------------------------|--------------------------------|
A|------------------------|------------------------|--------------------------------|
E|------------------------|------------------------|--------------------------------|

Verse Riff: 00:40

E|---------------|-----------------------------|
B|---10-7---x3---|------------12-9------12-----|
G|--7----9-7-----|-7/9-9---9------11--9--9-----|
D|-7-------------|7----9--9----------9---------|
A|---------------|-----------------------------|
E|---------------|-----------------------------|

then I just start noodling around on this pattern and then it goes into a 
little jam or guitar solo. The key switches a little from D to G I believe (I 
use E mixolydian then to a D major I think). Use this as a basis..

E--17-16-14---------------------------|   
B---------------17-15-14--------------|          
G----------------------------16-14-13-| 

The next time it breaks down at 6:20 is kinda tricky. I Just play a little 
solo in D at that point, then it goes back forth into some tension thing. All 
I really know is the riff he plays towards the end before the insanity 
starts. Goes like this..

E|----------------------------------|
B|-9-----10-9----9------------------|
G|--11-9-----11---11-9--11-9--------|
D|----------------------------------|
A|----------------------------------|
E|----------------------------------|

When at around 9:00 minutes I play it up here and really fast

E|-16------17-16--16---------|-16-16-16-17-17-17-19-19-19-21-21-21-21-21-|
B|----19-17-----19--19-17-16-|-------------------------------------------|

then

E|----------|
B|----------|
G|-6/8/11/9-|
D|-x/x/x/-x-|
A|-4/6/9/-7-|
E|----------|

at 9:35 he actually plays this riff again (at a diff location think)

E|-16----17-16--16---------|
B|---19-17----19--19-17-16-|

play this chord fast at 9:35 

E|-21-|
B|-xx-|
G|-16-|
D|-xX-|
A|-14-|
E|----|

then the solo, I don't wanna sit here all day so I'll just throw in a few 
things...

E|----------------------------------------------|
B|-12^^^-12h14p12----12h14p12---12--------------|
G|---------------------13----------13/11---11/9-|
D|----------------------------------------------|
A|----------------------------------------------|
E|----------------------------------------------|

E|------------------------------------------------|----------------|
B|------------------------------------------12^---|-------------12-|
G|-------------------9-9-11-11-11^-11^11^---------|----/9/11/13----|
D|-999999999h11-----------------------------------|-/11------------|
A|------------------------------------------------|----------------|
E|------------------------------------------------|----------------|

E--------------12-13-14/16/14--12--12-|-12-14-16------|-16--17-17-17/19/21-|
B--12-13-14---------------------------|-/14-----------|---17---------------|
G/13----------------------------------|---------------|--------------------|
D-------------------------------------|---------------|--------------------|
A-------------------------------------|---------------|--------------------|
E-------------------------------------|---------------|--------------------|

10:02..
                                        X8 
E|--21~~~~~~------21p19-17/16-|16-21p17p16---16/12-|
B|----------------------------|--------------------|
G|----------------------------|--------------------|
D|----------------------------|--------------------|
A|----------------------------|--------------------|
E|----------------------------|--------------------|

10:13..
E--------------------------12h14t21-14^| 
B10^12^^^^^(hold)12^10/9---------------|

Then a short solo in D... followed by the ending riff

E|--------------------------12h16p12-9-12^-12^9----------------|
B|------------------12-14------------------------12^10-9-------|
G|-------11-12-13-----------------------------------------11-9-|
D|-11-14-------------------------------------------------------|
A|-------------------------------------------------------------|
E|-------------------------------------------------------------|

the final part comes at this point the last time he plays the riff above...

E|-9-12/14-12---------12-14-16-17-19-21---21-19-17-16-14-12-|
B|------------14--14----------------------------------------|

E|-----12------------------------------------|----------------------12*----|
B|-/14---14-12-------14-12--------12---------|-----------------12*---------|
G|--------------13-13--------13/11--11/9-----|-----------------------------|
D|-------------------------------------------|-9/11/9----------------------|
A|-------------------------------------------|---------9/11/9---------9/7--|
E|-------------------------------------------|-----------------------------|
Tap to rate this tab
# A B C D E F G H I J K L M N O P Q R S T U V W X Y Z