Song name
# A B C D E F G H I J K L M N O P Q R S T U V W X Y Z

Disco Biscuits - House Dog Party Favor tab

House Dog Party Favor by The Disco Biscuits
Written by Jon "The Barbar" Gutwillig

:Note: Any extra open sting lines have been taken out to save space

Intro (in D) Play Twice

E|--------------------------------10-----------|
B|--12-12-12-12-10-12-12-10-10-12-----12-10-10-|
G|---------------------------------------------|

E|------------------------------------|E|--------------------|
B|------------------------------------|B|--------------------|
G|12-11-9h11--------------------------|G|--------------------|
D|-------------12-11-9h11-9-7~--7-7-9-|D|5-5-5--4-4-4--2-2-2-|
A|------------------------------------|A|--------------------|
E|------------------------------------|E|--------------------|

D|---2-2-----2-2----2-2----2/4-|
A|2h4-----2h4----2h4-----2-----|
E|-----------------------------|

G|-------------4-4-4p2--7-7-7p5-----|
D|-----4-4-4p2------------------7p5-|
A|-2h5------------------------------|
E|----------------------------------|

B|------------7-7-7p5--8-8-8p7-----|
G|----7-7-7p5------------------9p7-|
D|5h7------------------------------|

E|------------------------8-8-7-7-7h8-|
B|----8-8-8p7--10-10-10p8-------------|
G|7h9---------------------------------|

E|-10-10-10-10-9--10-10-9-10-12/14-| 3X

E|10-10-9--10-------------------|E|-------------------|
B|------------------------------|B|-------------------|
G|-------------4p2--------------|G|----4-4--4--4--2-4-| X3
D|-----------------4-2----------|D|--2-----4--5-------| Just Pt.2
A|----------------------4-4p2-2-|A|-------------------|
E|------------------------------|E|-------------------|

E|----------------------------------5-5-5-7-8-|
B|-----------------------5-5-5-6-8------------|
G|-----5-7-5------5-7-9-----------------------|
D|-5h7-------9-7------------------------------|
A|--------------------------------------------|
E|--------------------------------------------|

(play this next section 3 times) All High E
--------------------------------------------
E|9-10-12-12-12-10-12-12-10-12-15-|  

E|12-12-12-12-12-10-9-10-|  

E|12-12-10-12-12-10-12-15--12-12-12-12-12-|
---------------------------------------------
D|----4---4---|
A|------------| Then
E|-2~---2---2-|
--------------------------------------------- 
E|-----|------------------|
B|-----|------------------|
G|-----|------------------|
D|-----|---9-9--9---9-7-9-|
A|-----|-7-----9--10------|
E|-5h7-|------------------|

Verse riffs
  Dm
E|--------------------|
B|--------------------|
G|-----------------10-|
D|---7p5-5-7-5-7/10---|
A|-5------------------|
E|--------------------|
  Em
E|-------------------|
B|-------------------|
G|----------------12-|
D|--9p7 7 9 7 9/12---|
A|7------------------|
E|-------------------|
(goes back to the Dm riff a couple of times,  then into this)

D|---7p5-5-7-5----| 
A|-5----------7-5-|
E|----------------|

(which leads into the oh yeah... oh yeah.. chorus.)

G|--------------5---------------6-|
D|---------7p5-5-----------7-5-5--|
A|---7p5-5-----------7p5-5--------|
E|-5---------------5--------------|

G|-----------------10-|
D|---7p5-5-7-5-7/10---|
A|-5------------------|
E|--------------------|

E|-----------------|
B|-----------------|
G|-----------------|
D|---7p5-5-7-5-----|
A|-5-----------7-5-|
E|-----------------|

(after the 2nd chorus, they lead into this...)
E|----------------------------------------|
B|10-10-10-12-10---10-10-10-12-10--9h10p9-|
G|----------------------------------------|

E|-------------------------|
B|7~-7-7-7h8-7-7-7-8-7-----|
G|---------------------9 7-|

(after playing that 4 times, lead right into 
this...)
E|------------------------|
B|--------8-7-------------|
G|7h9p7h9-----7-9-9-7-----| X2
D|--------------------5-7-|
A|------------------------|
E|------------------------|

D|--4h5-7-9-7-4-4-|
A|5---------------|
E|----------------|


Now the next section after this before the jam starts i'm still not 100% sure on. 
i'll add it as soon as i work out all the kinks.)
Jam goes over a A > G.
then jon comes in with this riff, which is first
played 4 times before the ascending 10 count starts.

E|--12--10-9-9-9-9-9-9-10---9h10-10-10-10p9-|
B|------------------------9-----------------|
G|9-----------------------------------------|

E|9-9-----9--12------9-12-|
B|-----10---------10------|
G|------------------------|

so basically you loop this riff 4 times, and  
the ascending part is just the last 3 notes repeating up to 10. 
Tap to rate this tab
 
# A B C D E F G H I J K L M N O P Q R S T U V W X Y Z