Song name
# A B C D E F G H I J K L M N O P Q R S T U V W X Y Z

Disco Biscuits - And The Ladies Were The Rest Of The Night tab

-----------------------------------------------------------------
And The Ladies Were The Rest Of The Night - The Disco Biscuits
-----------------------------------------------------------------
Tabbed by: AcesHigh616

Tuning: E Standard


This song is almost always played inverted when performed live, but
here are the parts in the original order.

Intro:

e|------------------|-----------------|
B|------------------|-----------------|
G|------------------|-----------------|
D|------------------|-----------------|
A|---------2-2------|---------2-2-----|
E|0-00-0-00----3-3--|0-00-0-00----3b--|
  
 Palm mute the Open E            Bend 1/4 step


Verse:

The key changes here from E minor to A Harmonic Minor.  The verse
is usually pretty heavily improvised, but Barber always uses octaves
and generally plays these notes before the words come in. Make
sure to use a lot of mutes and wah to make it real funky.

e|--------------|-----------------|----------------|----------------|
B|10--10--13-12-|13--12-10--13-12-|13--12-10-10-12-|9----10-13------|
G|--------------|-----------------|----------------|----------------|
D|7---7---10-9--|10--9--7---10-9--|10--9--7--7--9--|6----7--10------|
A|--------------|-----------------|----------------|----------------|
E|--------------|-----------------|----------------|----------------|

It changes up a little bit when the vocals come in:

e|-------------|-------------|------------|------------|
B|10--10--8-12-|10--10-8-12--|10--10-8-12-|9-----------|
G|-------------|-------------|------------|------------| x 2
D|7---7---5-9--|7---7--5-9---|7---7--5-9--|6-----------|
A|-------------|-------------|------------|------------|
E|-------------|-------------|------------|------------|

e|-------------|-------------|------------|------------|
B|10--10--8-12-|10--10-8-12--|10--10-8-12-| 13---------|
G|-------------|-------------|------------|(12)--------|
D|7---7---5-9--|7---7--5-9---|7---7--5-9--| 10---------| x 4
A|-------------|-------------|------------|------------|
E|-------------|-------------|------------|------------|

Chorus:

Back to E minor for this part.  I'm pretty sure Barber just uses
powerchords here, however if you want you can throw in the 3rd as well.
Sometimes it's just slight overdrive, but sometimes when they want to
make the chorus real heavy Barber will use more distortion and some palm muting.

  Em        C   Bm   Am       Am  Bm

e|--------|---------|--------|---------|
B|--------|(5)-(3)--|(1)-----|(1)-(3)--|
G|(0)-----|-5---4---|-2------|-2---4---|
D|-2------|-5---4---|-2------|-2---4---|
A|-2------|-3---2---|-0------|-0---2---|
E|-0------|---------|--------|---------|
Tap to rate this tab
# A B C D E F G H I J K L M N O P Q R S T U V W X Y Z