Disco Biscuits - The World Is Spinning tab

Ok so I'm fairly new to the biscuits and this is my first attempt at a transcription of 
since I couldn't find a tab for it. Enjoy. -jonamr

THE WORLD IS SPINNING

Intro

|-----------------10-9-------9-||
|-11----10-----10---------12---||
|----11----9-8---------11-----*||
|-----------------------------*||
|------------------------------||
|------------------------------||

Verse/Chorus

 F#                     A                      B
|---------------------------------------------------------------------|
|------------11---11---------------10----10---------------10----10----|
|---------11---11----11-------9-11----11----11---------11----11----11-|
|------11------------------11------------------------9----------------|
|-9-12------------------12------------------------12------------------|
|----------------------------------------------11---------------------|
                        A
----------------------------------------------------------------||
------------10----10--------------10---10-------------10---10---||
---------11----11----11---------9----9----9---------9----9----9*||
-------9---------------------11------------------11------------*||
----12------------------7-12----------------7-12----------------||
-11------------------------------------------------------(5-4-3)||

Bridge

 Bm D C#m
|-2-5-4--|
|-3-7-5--|
|-4-7-6--|
|-4-7-6--|
|-2-5-4--|
|--------|
Tap to rate this tab
 
# A B C D E F G H I J K L M N O P Q R S T U V W X Y Z