Song name
# A B C D E F G H I J K L M N O P Q R S T U V W X Y Z

Disco Ensemble - Threat Letter Typewriter tab

-----------------------------------------------------------------------------
                  THREAT LETTER TYPEWRITER - Disco Ensemble
-----------------------------------------------------------------------------
Tabbed by: Ihpar_CH
E-mail: raphiinglin@hotmail.com

Tuning: Standard

Thats the solo of the song (~ 2:06 - 2:53). Hope you enjoy it.

Pls rate and comment  ;).



e|-5---------------5----------------5-------------------|
B|----6-----8---------6-----8---------6-----8-----------|
G|-------7-----5---------7-----5---------7-----5--7-----|
D|------------------------------------------------------|   x3
A|------------------------------------------------------|
E|------------------------------------------------------|

e|-6-----6-----8-----8-----5555--------8888-------------|
B|----7-----7-----7-----7--------7--7--------7--7-------|
G|------------------------------------------------------|
D|------------------------------------------------------|
A|------------------------------------------------------|
E|------------------------------------------------------|


e|----------------------------------------------------------------|
B|-15----------13------15----------14------15----------13---------|
G|-----14------------------14------------------14-----------------|
D|---------15------12----------15------12----------15------12--15-|  x2 
A|----------------------------------------------------------------|
E|----------------------------------------------------------------|

  (3rd part is a littel diffrent in the end)

e|----------------------------------------------------------------|
B|-15----------13------15----------14------15----------13--15-----|
G|-----14------------------14------------------14-----------------|
D|---------15------12----------15------12----------15----------15-|
A|----------------------------------------------------------------|
E|----------------------------------------------------------------|

e|-------------------------------------------------17------17-----------| 
B|-----------------13------13------15------15----------------------15\--|
G|-14------14-----------------------------------------------------------|
D|-----15------15------15------15------15------15------15------15-------|
A|----------------------------------------------------------------------| 
E|----------------------------------------------------------------------|

break (~2:30 - 2:40)

then:

e|-----------------------------------------------------------------|
B|-----------------------------------------------------------------|
G|-----------------------------------------------------------------|  
D|-----------------------------------------------------------------|
A|-5-5-5-5-5-5-----------------------------------------------------|  x2
E|-------------0-0-1-1-1-1-1-1-5-5-3-3-3-3-3-3-5-5-6-6-6-6-6-6-3-3-|

e|-------|
B|-5\----|
G|-------|
D|-------|
A|-------|
E|-------|



************************************

| /   slide up
| \   slide down
| h   hammer-on
| p   pull-off
| ~   vibrato
| +   harmonic
| x   Mute note
| b   Bend
| pb  Pre-bend
| br  Bend release
| pbr Pre-bend release
| brb Bend release bend

************************************
Tap to rate this tab
# A B C D E F G H I J K L M N O P Q R S T U V W X Y Z