Song name
# A B C D E F G H I J K L M N O P Q R S T U V W X Y Z

Discordance Axis - Numbers tab

Band: Discordance Axis
Song: Numb(ers)
Album: Jouhou
Tabbed by Aeon Phoenix

Intro
E:--------------------------------|
B:---11----11----11----11---------|
G:10-10-10-10-10-10-10-10---------|
D:-8--8--8--8--8--8--8--8-1-------|
A:-9--9--9--9--9--9--9--9-1-------|
D:------------------------1-------|

Verses
E:--------------------------------------------------------|
B:---11----11----11----11---------------------------------|
G:10-10-10-10-10-10-10-10-------4-------4-------4-------3-|
D:-8--8--8--8--8--8--8--8-------2-------2-------2-------1-|
A:-9--9--9--9--9--9--9--9-0-1-0-3-0-1-0-3-0-1-0-3-0-1-0-2-|
D:------------------------0-1-0---0-1-0---0-1-0---0-1-0---|

Outro chords
E:---------------------------|
B:---------------------------|
G:10-11-12-------------------|
D:-8--9-10-------------------|
A:-9-10-11-------------------|
D:---------------------------|
Tap to rate this tab
 
# A B C D E F G H I J K L M N O P Q R S T U V W X Y Z