Song name
# A B C D E F G H I J K L M N O P Q R S T U V W X Y Z

Discordance Axis - Come Apart Together Come Together Alone tab

Help us improve GuitareTab! Take a short survey!
Band: Discordance Axis
Song: Come Apart Together, Come Together Alone
Album: Jouhou
Tabbed by Aeon Phoenix

E:---------------------|--------------------------------|
B:---------------------|--------------------------------|
G:---------------------|--------------------------------|
D:4-4-6-5-7-6-9-8------|6-------1-------3-------2-------|
A:4-4-4-3-5-4-7-6------|6-------1-------3-------2-------|
D:4-4------------------|6-------1-------3-------2-------|

E:---------------------------------------------------------------|
B:---------------------------------------------------------------|
G:---------------------------------------------------------------|
D:6-6-6-6-6-6-6-6-1-1-1-1-1-1-1-1-3-3-3-3-3-3-3-3-2-2-2-2-2-2-2-2|
A:6-6-6-6-6-6-6-6-1-1-1-1-1-1-1-1-3-3-3-3-3-3-3-3-2-2-2-2-2-2-2-2|
D:6-6-6-6-6-6-6-6-1-1-1-1-1-1-1-1-3-3-3-3-3-3-3-3-2-2-2-2-2-2-2-2|
Related for Come Apart Together Come Together Alone tab