Guitaretab - guitar tabs
Song name
# A B C D E F G H I J K L M N O P Q R S T U V W X Y Z

Discordance Axis - Oratorio In Grey tab

Discordance Axis - Oratorio in Grey
Tabbed by Aeon Phoenix
[ Tab from: http://www.guitaretab.com/d/discordance-axis/76500.html ]
E  :---------------------------------|---------------------|
B  :---------------------------------|---------------------|
G  :---------------------------------|--------------6-6-6-6|
D  :----------------------1---------1|--------------6-6-6-6|
A  :4-5-4-6-5-4-0-0-0-0-0-1-0-0-0-0-1|4-5-4-6-5-4-4-5-5-5-5|
D  :4-5-4-6-5-4-0-0-0-0-0-0-0-0-0-0-0|4-5-4-6-5-4-4-4-4-4-4|
                _________  ________
E  :-----------------------------------|
B  :-----------------------------------|
G  :6-6-6-6-7-7-7-7-9-9-9-9-10-10-10-10|
D  :6-6-6-6-7-7-7-7-9-9-9-9-10-10-10-10|
A  :5-5-5-5-6-6-6-6-8-8-8-8--9--9--9--9|
D  :4-4-4-4-5-5-5-5-7-7-7-7--8--8--8--8|

E  :---------------------------------|-|
B  :---------------------------------|-|
G  :---------------------------------|-|
D  :----------------------1---------1|1|
A  :4-5-4-6-5-4-0-0-0-0-0-1-0-0-0-0-1|-|
D  :4-5-4-6-5-4-0-0-0-0-0-0-0-0-0-0-0|0|
    ___________                       _
Underlined notes heavily muted.
Related for Oratorio In Grey tab
Advertisement will be closed in 10 seconds