Song name
# A B C D E F G H I J K L M N O P Q R S T U V W X Y Z

Discover America - The Halves That Make Us Whole tab

Song: The Halves That Make Us Whole
Artist: Discover America
Album: Psychology
Tabbed By: Caleb M. (caleb_m2000@hotmail.com)

Tabbed for one guitar to play straight through.

Intro/verse 4x

e -------------------------------------------------------------------------|
B -------------------------------------------------------------------------|
G -------------------------------------------------------------------------|
D ---------2-2-4-4---------------------------------------------------------|
A -----4-4-------------4-4-2-2-0-0-2-2-----0-0-2-2-4-4-----2-2-4-----------|
E -2-2-------------2-2-----------------2-2-------------4-4-----------------|

Then

e -----------------------------------------------|
B -----------------------------------------------|
G -----------------------------------------------|
D -----------------------------------------------|
A -4-4-----2-2-4---4-4-----2-2-4---4-4-2-2-0-0---|
E -----4-4-------------4-4---------------------4-|

First Solo 2x

e -----------------------------------------|
B -----2-3-2-----2---3-3-2-------2---------|
G -----------2-4-------------2-4---4-2-1-2-|
D -4---------------------------------------|
A -----------------------------------------|
E -----------------------------------------|

Second verse 2x

e -------------------------------------------------------------------------|
B -------------------------------------------------------------------------|
G -------------------------------------------------------------------------|
D ---------2-2-4-4---------------------------------------------------------|
A -----4-4-------------4-4-2-2-0-0-2-2-----0-0-2-2-4-4-----2-2-4-----------|
E -2-2-------------2-2-----------------2-2-------------4-4-----------------|

Then

e -----------------------------------------------|
B -----------------------------------------------|
G -----------------------------------------------|
D -----------------------------------------------|
A -4-4-----2-2-4---4-4-4-4-4-4-4-4-4-4-2-2-0-0---|
E -----4-4-------------------------------------4-|

Second Solo

                                    2x
e --------5-|-5-4-----5-7-----7-9-9/-|-5-4-----5-7-----7-|
B -7------7-|-----3-0-----5-6---7-7/-|-----3-0-----5-6---|
G ---6------|------------------------|-------------------|
D -----4----|------------------------|-------------------|
A ----------|------------------------|-------------------|
E ----------|------------------------|-------------------|

Chorus

e -------------------------|-------------------------|
B -------------------------|-------------------------|
G -------4-6---6-4-------4-|-------4-6---6-4-------6-|
D -4-6-7-----7-----7-6-7---|-4-6-7-----7-----7-6-7---|
A -------------------------|-------------------------|
E -------------------------|-------------------------|

e -------------------------|----------------------------|
B -------------------------|-------7---7-10-7---9-------|
G -------4-6---9-7-6-4-6---|-7-9-7---7--------7---10----|
D -4-6-7-----7-----------7-|-------------------------11-|
A -------------------------|----------------------------|
E -------------------------|----------------------------|

Third Solo

                                                                    2x
e -------------------------------------------------------------------|
B -12-12-10-10-9-9/-9-9-9-7-7-7-5-5/---------------------------------|
G -------------------------------------------------------------------|
D -----------------------------------4-4-4-4-7-7-9-9-9-9-9-9-9-11-11-|
A -------------------------------------------------------------------|
E -------------------------------------------------------------------|

Then

e --------------------------------------------------------|
B ----------------------------12-12-12-12-12-12-12-14-14--|
G -10-10-10-10-10-10-10-13-13-------------------------16b-|
D --------------------------------------------------------|
A --------------------------------------------------------|
E --------------------------------------------------------|

Chorus

e -------------------------|-------------------------|
B -------------------------|-------------------------|
G -------4-6---6-4-------4-|-------4-6---6-4-------6-|
D -4-6-7-----7-----7-6-7---|-4-6-7-----7-----7-6-7---|
A -------------------------|-------------------------|
E -------------------------|-------------------------|

e -------------------------|----------------------------|
B -------------------------|-------7---7-10-7---9-------|
G -------4-6---9-7-6-4-6---|-7-9-7---7--------7---10----|
D -4-6-7-----7-----------7-|-------------------------11-|
A -------------------------|----------------------------|
E -------------------------|----------------------------|

Post Chorus

e ---------------------------------|
B ---------------------------------|
G ---------------------------------|
D ---------2-2-4-4---------2-2-4-4-|
A -----4-4-------------4-4---------|
E -2-2-------------2-2-------------|

Chorus

e -------------------------|-------------------------|
B -------------------------|-------------------------|
G -------4-6---6-4-------4-|-------4-6---6-4-------6-|
D -4-6-7-----7-----7-6-7---|-4-6-7-----7-----7-6-7---|
A -------------------------|-------------------------|
E -------------------------|-------------------------|

e -------------------------|----------------4-3---5-4-3-|
B -------------------------|-------7---7-10-6-3---7-6-3-|
G -------4-6---9-7-6-4-6---|-7-9-7---7------6-4---7-6-4-|
D -4-6-7-----7-----------7-|----------------6-5---7-6-5-|
A -------------------------|----------------4-5---5-4-5-|
E -------------------------|------------------3-------3-|

Final Solo 3x

e -----------------------------------------|
B -----2-3-2-----2---3-3-2-------2---------|
G -----------2-4-------------2-4---4-2-1-2-|
D -4---------------------------------------|
A -----------------------------------------|
E -----------------------------------------|

End with

e -2-|
B -3-|
G -0-|
D -0-|
A ---|
E ---|
Tap to rate this tab
 
# A B C D E F G H I J K L M N O P Q R S T U V W X Y Z