Song name
# A B C D E F G H I J K L M N O P Q R S T U V W X Y Z

Disengage - Expressions tab

Expressions
Disengage
Expressions
Back to Back Records
backtobackrecords.com

INTRO
E||---------------------------------------|
B||---------------------------------------|
G||--9--------------7---------------------|
D||--9----9----9----7----7----7----9------|
A||--7----9----9----5----7----7----9------|
E||-------7----7---------5----5----7------|

VERSE (x2)
-------------------|
-------------------|
-------------------|
--9-9--9-7-12--12--| x 4
--7-7--7-5-10--10--|
-------------------|

--------------------------------|
--------------------------------|
--------------------------------|
--5-5--5-7-10--10-5-5--5-7-7--7-| x 2
--3-3--3-5--8---8-3-3--3-5-5--5-|
--------------------------------|

ENDING
-------------------------------|
-------------------------------|
-------------------------------|
--9-9--9-7-7--7-9-9--9-7--7--7-|
--7-7--7-5-5--5-7-7--7-5--5--5-|
-------------------------------|

  
-------------------||
-------------------||
--9----------------||
--9----------------||
--7----------------||
-------------------||
Tap to rate this tab
 
# A B C D E F G H I J K L M N O P Q R S T U V W X Y Z