Song name
# A B C D E F G H I J K L M N O P Q R S T U V W X Y Z

Disengage - Inside tab

Inside
Disengage
Look Back EP
Back to Back Records
http://www.backtobackrecords.com/

Tuning: Standard

INTRO
E||-------------------||
B||-------------------||
G||-------------------||
D||--2----------------||
A||--2----------------||
E||--0----------------||
Lots of feedback and shit going on. Bass is playing something

Then this for the rest of the song
E||-------------------------|-----------------------------|
B||-------------------------|-----------------------------|
G||--9----9--9--9--9--9--9--|--7--7--7--10----10--10--10--|
D||--9----9--9--9--9--9--9--|--7--7--7--10----10--10--10--|
A||--7----7--7--7--7--7--7--|--5--5--5---8-----8---8---8--|
E||-------------------------|-----------------------------|
Tap to rate this tab
# A B C D E F G H I J K L M N O P Q R S T U V W X Y Z