Song name
# A B C D E F G H I J K L M N O P Q R S T U V W X Y Z

Disengage - Stranglehold tab

Stranglehold
Disengage
Look Back EP
Back to Back Records
http://www.backtobackrecords.com/

Tuning: Standard

INTRO/VERSE RIFF
E||------------------------|------------------------|
B||------------------------|------------------------|
G||------------------------|--7--7----7--9---9---9--|
D||--2--2----2--5--5----5--|--7--7----7--9---9---9--| x 4
A||--2--2----2--5--5----5--|--5--5----5--7---7---7--|
E||--0--0----0--3--3----3--|------------------------|

      
-------------------------|---------------------|
-------------------------|---------------------|
--9----------------------|--9------------------|
--9----9--9--9--9--9--9--|--9------------------|
--7----7--7--7--7--7--7--|--7------------------|
-------------------------|---------------------|
PM     x  x  x  x  x  x
 
---------------------------|-------------------------|
---------------------------|-------------------------|
--9----9--9-9-9--9--9--9-9-|--5--5--5--7----7--7--7--|
--9----9--9-9-9--9--9--9-9-|--5--5--5--7----7--7--7--| x 4
--7----7--7-7-7--7--7--7-7-|--3--3--3--5----5--5--5--|
---------------------------|-------------------------|

Repeat

ENDING
------------------------|------------------------|
------------------------|------------------------|
------------------------|--7--7----7--9---9---7--|
--2--2----2--5--5----5--|--7--7----7--9---9---7--|
--2--2----2--5--5----5--|--5--5----5--7---7---5--|
--0--0----0--3--3----3--|------------------------|


END ON                  
-------------------||
-------------------||
--9----------------||
--9----------------||
--7----------------||
-------------------||

Super easy song.
Tap to rate this tab
# A B C D E F G H I J K L M N O P Q R S T U V W X Y Z