Song name
# A B C D E F G H I J K L M N O P Q R S T U V W X Y Z

Disengage - Drinking Song tab

Drinking Song
Disengage
Look Back EP
Back to Back Records
http://www.backtobackrecords.com/

Tuning: Standard

INTRO
E||--------------------------|----------------------|--------------------------|
B||--------------------------|----------------------|--------------------------|
G||--------------5-5---------|----------------------|--------------5-5---------|
D||--4--4--4--7--5-5--7------|-------7---5---7------|--4--4--4--7--5-5--7------|
A||--4--4--4--7--3-3--7------|----------------------|--4--4--4--7--3-3--7------|
E||--2--2--2--5-------5------|----------------------|--2--2--2--5-------5------|

VERSE (x2)
---------------------------|
---------------------------|
--------------5-5----------|
--4--4--4--7--5-5--7--7-7--| x 4
--4--4--4--7--3-3--7--7-7--|
--2--2--2--5-------5--5-5--|

--------------------------|---------------------------|
--------------------------|---------------------------|
--------------------------|--4--4---4-4--9--9-9--9-9--|
--4--4---4-4--7--7---7-7--|--4--4---4-4--9--9-9--9-9--| x 2
--4--4---4-4--7--7---7-7--|--2--2---2-2--7--7-7--7-7--|
--2--2---2-2--5--5---5-5--|---------------------------|

BREAKDOWN
------------------------------------|
------------------------------------|
-----------------------5-5----------|
--4--------------------5-5--7--7-7--| x 4
--4--4--4--4--4--4--4--3-3--7--7-7--|
--2--2--2--2--2--2--2-------5--5-5--|
PM   x  x  x  x  x  x

----------------------|
----------------------|
----------------------|
----4----4------------| x 4
--2-4--2-4------------|
--0-2--0-2------------|

----------------------------------|
----------------------------------|
----------------------------------|
----------5-5-4-4---------5-5-4-4-| x 4
--4-4-7-7-3-3-2-2-4-4-7-7-3-3-2-2-|
--2-2-5-5---------2-2-5-5---------|

VERSE
--------------------------|----------------------------|
--------------------------|----------------------------|
--------------------------|--4-4--4-4----9-9--9-9--9-9-|
--4-4--4-4----7-7--7-7----|--4-4--4-4----9-9--9-9--9-9-|
--4-4--4-4----7-7--7-7----|--2-2--2-2----7-7--7-7--7-7-|
--2-2--2-2----5-5--5-5----|----------------------------|
     
--------------------------|----------------------------|
--------------------------|----------------------------|
--------------------------|--4-4-4-4-4-4-4-4-9---------|
--4-4--4-4----7-7--7-7----|--4-4-4-4-4-4-4-4-9---------|
--4-4--4-4----7-7--7-7----|--2-2-2-2-2-2-2-2-7---------|
--2-2--2-2----5-5--5-5----|----------------------------|

ENDING
----------------------------||
----------------------------||
----------------------------||
----------5-5-4-4-4---------||
--4-4-7-7-3-3-2-2-4---------||
--2-2-5-5---------2---------||
Tap to rate this tab
 
# A B C D E F G H I J K L M N O P Q R S T U V W X Y Z