Song name
# A B C D E F G H I J K L M N O P Q R S T U V W X Y Z

Disengage - Look Back tab

Look Back
Disengage
Look Back EP
Back to Back Records
http://www.backtobackrecords.com/

Tuning: Standard

INTRO
----------------------|-------------------|
----------------------|-------------------|
--4--4----------------|--4----------------|
--4--4----------------|--4----------------|
--2--2----------------|--2----------------|
----------------------|-------------------|

VERSE
------------------------|------------------------|
------------------------|------------------------|
--4--4----4--2--2----2--|--5--5----5--2--2----2--|
--4--4----4--2--2----2--|--5--5----5--2--2----2--| x 4
--2--2----2--0--0----0--|--3--3----3--0--0----0--|
------------------------|------------------------|
  
------------------------|------------------------------|
------------------------|------------------------------|
--4--4----4--4--4----4--|--10--10----10--10--10----10--|
--4--4----4--4--4----4--|--10--10----10--10--10----10--| x 2
--2--2----2--2--2----2--|---8---8-----8---8---8-----8--|
------------------------|------------------------------|

------------------------|------------------------|
------------------------|------------------------|
--4--4----4--2--2----2--|--5--5----5--2--2----2--|
--4--4----4--2--2----2--|--5--5----5--2--2----2--| x 4
--2--2----2--0--0----0--|--3--3----3--0--0----0--|
------------------------|------------------------|

--------------------------|----------------------------|
--------------------------|----------------------------|
--4----4--4-4-4--4--4-----|--------------7--x-x--------|
--4----4--4-4-4--4--4--4--|----4--4--4-4-7--x-x-7--x-x-| x 4
--2----2--2-2-2--2--2--4--|----4--4--4-4-5--x-x-7--x-x-|
-----------------------2--|----2--2--2-2--------5--x-x-|

END ON
-------------------|
-------------------|
--4----------------|
--4----------------|
--2----------------|
-------------------|
Tap to rate this tab
 
# A B C D E F G H I J K L M N O P Q R S T U V W X Y Z