Song name
# A B C D E F G H I J K L M N O P Q R S T U V W X Y Z

Disengage - Straight Faced tab

Straight Faced
Disengage
Look Back EP
Back to Back Records
http://www.backtobackrecords.com/

Tuning: Standard


INTRO
--------------------------|----------------------------|
--------------------------|----------------------------|
----------x--x-x-x--x--x--|--x-x-x--x--x--x-x-x--x--x--|
--7--9----x--x-x-x--x--x--|--x-x-x--x--x--x-x-x--x--x--| x 7
--7--9----x--x-x-x--x--x--|--x-x-x--x--x--x-x-x--x--x--|
--5--7----x--x-x-x--x--x--|--x-x-x--x--x--x-x-x--x--x--|

                           
--------------------------|
--------------------------|
--------------------------|
--7--9--------------------| x 1
--7--9----9--9--9--9--9---|
--5--7----7--7--7--7--7---|
PM        x  x  x  x  x  

VERSE
------------------------|
------------------------|
----------------7----7--|
--9--9----9--7--7----7--| x 4
--9--9----9--7--5----5--|
--7--7----7--5----------|

------------------------------|------------------------------|
------------------------------|------------------------------|
--10--10----10--10--10----10--|--10--10----10--10--10----10--|
--10--10----10--10--10----10--|--10--10----10--10--10----10--|
---8---8-----8---8---8-----8--|---8---8-----8---8---8-----8--|
------------------------------|------------------------------|
 
------------------------|
------------------------|
----------------7----7--|
--9--9----9--7--7----7--| x 2
--9--9----9--7--5----5--|
--7--7----7--5----------|

------------------------------|---------------------------|
------------------------------|---------------------------|
--10--10----10--10--10----10--|--10--10----10-------------|
--10--10----10--10--10----10--|--10--10----10--7---7---7--|
---8---8-----8---8---8-----8--|---8---8-----8--7---7---7--|
------------------------------|----------------5---5---5--|

 
--------------------------|-------------------------------|
--------------------------|-------------------------------|
-----------------7----10--|----10--10--10--10--10--10-----|
--9----9--7-7-7--7----10--|----10--10--10--10--10--10--7--| x 4
--9----9--7-7-7--5-----8--|-----8---8---8---8---8---8--7--|
--7----7--5-5-5-----------|----------------------------5--|


END ON                  
-------------------||
-------------------||
-------------------||
--9----------------||
--9----------------||
--7----------------||
Tap to rate this tab
# A B C D E F G H I J K L M N O P Q R S T U V W X Y Z