Song name
# A B C D E F G H I J K L M N O P Q R S T U V W X Y Z

Disengage - Love Letter Rough Draft tab

Tabbed by Jeff Kingsbury

Band's website: http://www.disengage.net/V4/low/

Tuning: Drop-D One Half Step Down

intro
e|------------------------------------------------------------------------------|
B|------------------------------------------------------------------------------|
G|------------------------------------------------------------------------------|  x 4
D|------------------------------------------------------------------------------|
A|------------------------------------------------------------------------------|
E|--0-0-0-15-0-12-0-13-0-10-0-0-10-10-10-10-------------------------------------|


Then the bass kicks in with the same riff and does the verse


Chorus
e|------------------------------------------------------------------------------|
B|------------------------------------------------------------------------------|
G|------------------------------------------------------------------------------|
D|--0-0-0-15-0-12-12-12-0-14-14-14-14-8-8-8-0-0-0-10-0-0-0-0-0-3-3-3-3-10-10-10-|
A|--0-0-0-15-0-12-12-12-0-14-14-14-14-8-8-8-0-0-0-10-0-0-0-0-0-3-3-3-3-10-10-10-|
E|--0-0-0-15-0-12-12-12-0-14-14-14-14-8-8-8-0-0-0-10-0-0-0-0-0-3-3-3-3-10-10-10-|



The thing after the chorus
e|---------------------------------------------------------------------------|
B|---------------------------------------------------------------------------|
G|---------------------------------------------------------------------------|x8
D|--0-0-0-8-0-10-10-10-------------------------------------------------------|
A|--0-0-0-8-0-10-10-10-------------------------------------------------------|
E|--0-0-0-8-0-10-10-10-------------------------------------------------------|



e|---------------------------------------------------------------------------|
B|---------------------------------------------------------------------------|
G|---------------------------------------------------------------------------|  x 3
D|--8-0~~--------------------------------------------------------------------|
A|--8-0~~--------------------------------------------------------------------|
E|--8-0~~--------------------------------------------------------------------|


e|---------------------------------------------------------------------------|
B|---------------------------------------------------------------------------|
G|---------------------------------------------------------------------------|
D|--8-5-5-5-5-3-3-3----------------------------------------------------------|
A|--8-5-5-5-5-3-3-3----------------------------------------------------------|
E|--8-5-5-5-5-3-3-3----------------------------------------------------------|

Tap to rate this tab
# A B C D E F G H I J K L M N O P Q R S T U V W X Y Z