Song name
# A B C D E F G H I J K L M N O P Q R S T U V W X Y Z

Dishwalla - Until I Wake Up Acoustic tab

Heres my version of Dishwalla's Until I wake up- acoustic.
Pretty similar to my other version of the song, but with a picked chorus.
Have fun

Main Riff

e--------0----------------------------------0--------------------------|
B----5-----5---5----------9-------9------4----4--4----5---5--5----5----|
G-----------------------------9----------------------------------------|
D----------------------------------------------------------------------|
A--4---4-----4---4/7----7---7---7---7\---------------------------------|
E---------------------------------------4--4---4----5---5-------5------|


CHORUS

e--------0----------------------------------0--------------------------|
B----5-----5---5----------9-------9------4----4--4----5---5--5----5----|
G-----------------------------9----------------------------------------|
D----------------------------------------------------------------------|
A--4---4-----4---4/7----7---7---7---7\---------------------------------|
E---------------------------------------4--4---4----5---5-------5------|

e--------0-----------------0-----------------0---------------------------|
B----7-------7---7-----9-------9----9-----4-------4---4----5---5--5----5-|
G------------------------------------------------------------------------|
D------------------------------------------------------------------------|
A------------------------------------------------------------------------|
E--7---7---7---7---7/9---9---9----9-----4---4---4---4----5---5-------5---|


After the chorus, the break is just the main riff again.

All the best (and a shout out to croweyes1121 for getting me tabbing again!)

David
(the.end.is.forever@gmail.com)
Tap to rate this tab
# A B C D E F G H I J K L M N O P Q R S T U V W X Y Z