Song name
# A B C D E F G H I J K L M N O P Q R S T U V W X Y Z

Dishwalla - Until I Wake Up tab

-----------------------------------------------------------------------------
			     Until I Wake Up - Dishwalla
-----------------------------------------------------------------------------

Tabbed by: testekleez

Tuning:Bass to Treble EEEEBE



   E  E  E  E  E  E  E  E    E  E  E  E  E  E  Q     E  E  E  E  E  E  E  E   
E|----0-----------0------|------0-----------0------|-----0-----------0-------|
B|----------5-----------5|------------9------------|-----------4-----------4-|
E|-----------------------|-------------------------|-------------------------|
E|-------0-----------0---|---------0-----------0---|--------0-----------0----|
E|-----------------------|-------------------------|-------------------------|
E|-5-----------5---------|--/9-----------9---------|--4-----------4----------|


 E  E  E  E  E  E  E  E    E  E  E  E  E  E  E  E    E  E  E  E  E  E  Q     
----0-----------0--------|----0-----------0--------|----0-----------0--------|
----------5-----------5--|----------5-----------5--|----------9--------------|
-------------------------|-------------------------|-------------------------|
-------0-----------0-----|-------0-----------0-----|-------0-----------0-----|
-------------------------|-------------------------|-------------------------|
-5-----------5-----------|-5-----------5-----------|-9-----------9-----------|


 E  E  E  E  E  E  E  E    E  E  E  E  E  E  E  E    E  E  E  E  E  E  E  E   
----0-----------0--------|----0-----------0--------|----0-----------0--------|
----------4-----------4--|----------5-----------5--|----------5-----------5--|
-------------------------|-------------------------|-------------------------|
-------0-----------0-----|-------0-----------0-----|-------0-----------0-----|
-------------------------|-------------------------|-------------------------|
-4-----------4-----------|-5-----------5-----------|-5-----------5-----------|


 E  E  E  E  E  E  Q       E  E  E  E  E  E  E  E    E  E  E  E  E  E  E  E   
----0-----------0--------|----0-----------0--------|----0-----------0--------|
----------9--------------|----------4-----------4--|----------5-----------5--|
-------------------------|-------------------------|-------------------------|
-------0-----------0-----|-------0-----------0-----|-------0-----------0-----|
-------------------------|-------------------------|-------------------------|
-9-----------9-----------|-4-----------4-----------|-5-----------5-----------|


 E  E  E  E  E  E  E  E    E  E  E  E  E  E  Q       E  E  E  E  E  E  E  E   
----0-----------0--------|----0-----------0--------|----0-----------0--------|
----------5-----------5--|----------9--------------|----------4-----------4--|
-------------------------|-------------------------|-------------------------|
-------0-----------0-----|-------0-----------0-----|-------0-----------0-----|
-------------------------|-------------------------|-------------------------|
-5-----------5-----------|-9-----------9-----------|-4-----------4-----------|


 E  E  E  E  E  E  E  E    E  E  E  E  E  E  E  E    E  E  E  E  E  E  Q     
----0-----------0--------|----0-----------0--------|----0-----------0--------|
----------5-----------5--|----------5-----------5--|----------9--------------|
-------------------------|-------------------------|-------------------------|
-------0-----------0-----|-------0-----------0-----|-------0-----------0-----|
-------------------------|-------------------------|-------------------------|
-5-----------5-----------|-5-----------5-----------|-9-----------9-----------|


 E  E  E  E  E  E  E  E    E  E  E  E  E  E  E  E    E  E  E  E  E  E  E  E   
----0-----------0--------|----0-----------0--------|----0-----------0--------|
----------4-----------4--|----------5-----------5--|----------5-----------5--|
-------------------------|-------------------------|-------------------------|
-------0-----------0-----|-------0-----------0-----|-------0-----------0-----|
-------------------------|-------------------------|-------------------------|
-4-----------4-----------|-5-----------5-----------|-5-----------5-----------|


 E  E  E  E  E  E  Q       E  E  E  E  E  E  E  E    E  E  E  E  E  E  E  E   
----0-----------0--------|----0-----------0--------|-----0-----------0-------|
----------9--------------|----------4-----------4--|-----------5-----------5-|
-------------------------|-------------------------|-------------------------|
-------0-----------0-----|-------0-----------0-----|--------0-----------0----|
-------------------------|-------------------------|-------------------------|
-9-----------9-----------|-4-----------4-----------|--5-----------5----------|


 E  E  E  E  E  E  E  E     E  E  E  E  E  E  Q       E  E  E  E  E  E  E  E   
----0-----------0--------|-----0-----------0-------|-----0-----------0-------|
----------5-----------5--|-----------9-------------|-----------4-----------4-|
-------------------------|-------------------------|-------------------------|
-------0-----------0-----|--------0-----------0----|--------0-----------0----|
-------------------------|-------------------------|-------------------------|
-5-----------5-----------|--9-----------9----------|--4-----------4----------|


 E  E  E  E  E  E  E  E     E  E  E  E  E  E  E  E    E  E  E  E  E  E  Q     
----0-----------0--------|-----0-----------0-------|-----0-----------0-------|
----------5-----------5--|-----------5-----------5-|-----------9-------------|
-------------------------|-------------------------|-------------------------|
-------0-----------0-----|--------0-----------0----|--------0-----------0----|
-------------------------|-------------------------|-------------------------|
-5-----------5-----------|--5-----------5----------|--9-----------9----------|


 E  E  E  E  E  E  E  E     E  E  E  E  E  E  E  E    E  E  E  E  E  E  E  E   
----0-----------0--------|-----0-----------0-------|-----0-----------0-------|
----------4-----------4--|-----------5-----------5-|-----------5-----------5-|
-------------------------|-------------------------|-------------------------|
-------0-----------0-----|--------0-----------0----|--------0-----------0----|
-------------------------|-------------------------|-------------------------|
-4-----------4-----------|--5-----------5----------|--5-----------5----------|


 E  E  E  E  E  E  Q        E  E  E  E  E  E  Q       E  E  E  E  E  E  E  E   
----------0--------------|-----------0-------------|-----0-----------0-------|
----9-----------9--L-----|-----4-----------4--L----|-----------5-----------5-|
-------------------------|-------------------------|-------------------------|
-------0-----------------|--------0----------------|--------0-----------0----|
-------------------------|-------------------------|-------------------------|
-9-----------9-----------|--4-----------4----------|--5-----------5----------|


 E  E  E  E  E  E  E  E     E  E  E  E  E  E  Q       E  E  E  E  E  E  E  E   
----------0-----------0--|-----------0-------------|-----------0-------------|
----7-----------7--------|-----9-----------9-------|-----4-----------4-------|
-------------------------|-------------------------|-------------------------|
-------0-----------0-----|--------0-----------0----|--------0-----------0----|
-------------------------|-------------------------|-------------------------|
-7-----------7-----------|--9-----------9----------|--4-----------4--------4-|


 E  E  E  E  E  E  E  E     E  E  E  E  E  E  E  E    E  E  E  E  E  E  Q     
----0-----------0--------|-----0-----------0-------|-----0-----------0-------|
----------5-----------5--|-----------5-----------5-|-----------9-------------|
-------------------------|-------------------------|-------------------------|
-------0-----------0-----|--------0-----------0----|--------0-----------0----|
-------------------------|-------------------------|-------------------------|
-5-----------5-----------|--5-----------5----------|--9-----------9----------|


 E  E  E  E  E  E  E  E     E  E  E  E  E  E  E  E    E  E  E  E  E  E  E  E   
----0-----------0--------|-----0-----------0-------|-----0-----------0-------|
----------4-----------4--|-----------5-----------5-|-----------5-----------5-|
-------------------------|-------------------------|-------------------------|
-------0-----------0-----|--------0-----------0----|--------0-----------0----|
-------------------------|-------------------------|-------------------------|
-4-----------4-----------|--5-----------5----------|--5-----------5----------|


 E  E  E  E  E  E  Q        E  E  E  E  E  E  E  E    E  E  E  E  E  E  E  E   
----0-----------0--------|-----0-----------0-------|-----0-----------0-------|
----------9--------------|-----------4-----------4-|-----------5-----------5-|
-------------------------|-------------------------|-------------------------|
-------0-----------0-----|--------0-----------0----|--------0-----------0----|
-------------------------|-------------------------|-------------------------|
-9-----------9-----------|--4-----------4----------|--5-----------5----------|


 E  E  E  E  E  E  E  E     E  E  E  E  E  E  Q       E  E  E  E  E  E  E  E   
----0-----------0--------|-----0-----------0-------|-----0-----------0-------|
----------5-----------5--|-----------9-------------|-----------4-----------4-|
-------------------------|-------------------------|-------------------------|
-------0-----------0-----|--------0-----------0----|--------0-----------0----|
-------------------------|-------------------------|-------------------------|
-5-----------5-----------|--9-----------9----------|--4-----------4----------|


 E  E  E  E  E  E  E  E     E  E  E  E  E  E  E  E    E  E  E  E  E  E  Q     
----0-----------0--------|-----0-----------0-------|-----0-----------0-------|
----------5-----------5--|-----------5-----------5-|-----------9-------------|
-------------------------|-------------------------|-------------------------|
-------0-----------0-----|--------0-----------0----|--------0-----------0----|
-------------------------|-------------------------|-------------------------|
-5-----------5-----------|--5-----------5----------|--9-----------9----------|


 E  E  E  E  E  E  E  E     E  E  E  E  E  E  E  E    E  E  E  E  E  E  E  E   
----0-----------0--------|-----0-----------0-------|-----0-----------0-------|
----------4-----------4--|-----------5-----------5-|-----------5-----------5-|
-------------------------|-------------------------|-------------------------|
-------0-----------0-----|--------0-----------0----|--------0-----------0----|
-------------------------|-------------------------|-------------------------|
-4-----------4-----------|--5-----------5----------|--5-----------5----------|


 E  E  E  E  E  E  Q        E  E  E  E  E  E  E  E    E  E  E  E  E  E  E  E   
----0-----------0--------|-----0-----------0-------|-----0-----------0-------|
----------9--------------|-----------4-----------4-|-----------5-----------5-|
-------------------------|-------------------------|-------------------------|
-------0-----------0-----|--------0-----------0----|--------0-----------0----|
-------------------------|-------------------------|-------------------------|
-9-----------9-----------|--4-----------4----------|--5-----------5----------|


 E  E  E  E  E  E  E  E     E  E  E  E  E  E  Q       E  E  E  E  E  E  E  E   
----0-----------0--------|-----0-----------0-------|-----0-----------0-------|
----------5-----------5--|-----------9-------------|-----------4-----------4-|
-------------------------|-------------------------|-------------------------|
-------0-----------0-----|--------0-----------0----|--------0-----------0----|
-------------------------|-------------------------|-------------------------|
-5-----------5-----------|--9-----------9----------|--4-----------4----------|


 E  E  E  E  E  E  E  E     E  E  E  E  E  E  E  E    E  E  E  E  E  E  Q     
----0-----------0--------|-----0-----------0-------|-----0-----------0-------|
----------5-----------5--|-----------5-----------5-|-----------9-------------|
-------------------------|-------------------------|-------------------------|
-------0-----------0-----|--------0-----------0----|--------0-----------0----|
-------------------------|-------------------------|-------------------------|
-5-----------5-----------|--5-----------5----------|--9-----------9----------|


 E  E  E  E  E  E  E  E     E  E  E  E  E  E  E  E    E  E  E  E  E  E  E  E   
----0-----------0--------|-----0-----------0-------|-----------0-----------0-|
----------4-----------4--|-----------5-----------5-|-----5-----------5-------|
-------------------------|-------------------------|-------------------------|
-------0-----------0-----|--------0-----------0----|--------0-----------0----|
-------------------------|-------------------------|-------------------------|
-4-----------4-----------|--5-----------5----------|--5-----------5----------|


 E  E  E  E  E  E  Q        E  E  E  E  E  E  Q       E  E  E  E  E  E  E  E   
----------0--------------|-----------0-------------|-----0-----------0-------|
----9-----------9--L-----|-----4-----------4--L----|-----------5-----------5-|
-------------------------|-------------------------|-------------------------|
-------0-----------------|--------0----------------|--------0-----------0----|
-------------------------|-------------------------|-------------------------|
-9-----------9-----------|--4-----------4----------|--5-----------5----------|


 E  E  E  E  E  E  E  E     E  E  E  E  E  E  Q       E  E  E  E  E  E  Q     
----------0-----------0--|-----------0-------------|-----------0-------------|
----7-----------7--------|-----9-----------9--L----|-----4-----------4--L----|
-------------------------|-------------------------|-------------------------|
-------0-----------0-----|--------0----------------|--------0----------------|
-------------------------|-------------------------|-------------------------|
-7-----------7-----------|--9-----------9----------|--4-----------4----------|


 E  E  E  E  E  E  E  E     E  E  E  E  E  E  E  E    E  E  E  E  E  E  Q     
----0-----------0--------|-----0-----------0-------|-----------0-------------|
----------5-----------5--|-----------5-----------5-|-----9-----------9--L----|
-------------------------|-------------------------|-------------------------|
-------0-----------0-----|--------0-----------0----|--------0----------------|
-------------------------|-------------------------|-------------------------|
-5-----------5-----------|--5-----------5----------|--9-----------9----------|


 E  E  E  E  E  E  Q        E  E  E  E  E  E  E  E    E  E  E  E  E  E  E  E   
----------0--------------|-----0-----------0-------|-----------0-----------0-|
----4-----------4--L-----|-----------5-----------5-|-----7-----------7-------|
-------------------------|-------------------------|-------------------------|
-------0-----------------|--------0-----------0----|--------0-----------0----|
-------------------------|-------------------------|-------------------------|
-4-----------4-----------|--5-----------5----------|--7-----------7----------|


 E  E  E  E  E  E  Q        E  E  E  E  E  E  Q       E  E  E  E  E  E  E  E   
----------0--------------|-----------0-------------|-----0-----------0-------|
----9-----------9--L-----|-----4-----------4--L----|-----------5-----------5-|
-------------------------|-------------------------|-------------------------|
-------0-----------------|--------0----------------|--------0-----------0----|
-------------------------|-------------------------|-------------------------|
-9-----------9-----------|--4-----------4----------|--5-----------5----------|


 E  E  E  E  E  E  E  E     E  E  E  E  E  E  Q       E  E  E  E  E  E  E  E   
----0-----------0--------|-----0-----------0-------|-----0-----------0-------|
----------5-----------5--|-----------9-------------|-----------4-----------4-|
-------------------------|-------------------------|-------------------------|
-------0-----------0-----|--------0-----------0----|--------0-----------0----|
-------------------------|-------------------------|-------------------------|
-5-----------5-----------|--9-----------9----------|--4-----------4----------|


 E  E  E  E  E  E  E  E     E  E  E  E  E  E  E  E    E  E  E  E  E  E  Q     
----0-----------0--------|-----0-----------0-------|-----0-----------0-------|
----------5-----------5--|-----------5-----------5-|-----------9-------------|
-------------------------|-------------------------|-------------------------|
-------0-----------0-----|--------0-----------0----|--------0-----------0----|
-------------------------|-------------------------|-------------------------|
-5-----------5-----------|--5-----------5----------|--9-----------9----------|


 E  E  E  E  E  E  E  E     E  E  E  E  E  E  E  E    E  E  E  E  E  E  E  E   
----0-----------0--------|-----0-----------0-------|-----0-----------0-------|
----------4-----------4--|-----------5-----------5-|-----------5-----------5-|
-------------------------|-------------------------|-------------------------|
-------0-----------0-----|--------0-----------0----|--------0-----------0----|
-------------------------|-------------------------|-------------------------|
-4-----------4-----------|--5-----------5----------|--5-----------5----------|


 E  E  E  E  E  E  Q        E  E  E  E  E  E  E  E    E  E  E  E  E  E  E  E   
----0-----------0--------|-----0-----------0-------|-----0-----------0-------|
----------9--------------|-----------4-----------4-|-----------5-----------5-|
-------------------------|-------------------------|-------------------------|
-------0-----------0-----|--------0-----------0----|--------0-----------0----|
-------------------------|-------------------------|-------------------------|
-9-----------9-----------|--4-----------4----------|--5-----------5----------|


 E  E  E  E  E  E  E  E     E  E  E  E  E  E  Q       E  E  E  E  E  E  E  E   
----0-----------0--------|-----0-----------0-------|-----0-----------0-------|
----------5-----------5--|-----------9-------------|-----------4-----------4-|
-------------------------|-------------------------|-------------------------|
-------0-----------0-----|--------0-----------0----|--------0-----------0----|
-------------------------|-------------------------|-------------------------|
-5-----------5-----------|--9-----------9----------|--4-----------4----------|


 E  E  E  E  E  E  E  E     E  E  E  E  E  E  E  E    E  E  E  E  E  E  Q     
----0-----------0--------|-----0-----------0-------|-----------0-------------|
----------5-----------5--|-----------5-----------5-|-----9-----------9--L----|
-------------------------|-------------------------|-------------------------|
-------0-----------0-----|--------0-----------0----|--------0----------------|
-------------------------|-------------------------|-------------------------|
-5-----------5-----------|--5-----------5----------|--9-----------9----------|


 E  E  E  E  E  E  Q        E  E  E  E  E  E  E  E    E  E  E  E  E  E  E  E   
----------0--------------|-----0-----------0-------|-----------0-----------0-|
----4-----------4--L-----|-----------5-----------5-|-----7-----------7-------|
-------------------------|-------------------------|-------------------------|
-------0-----------------|--------0-----------0----|--------0-----------0----|
-------------------------|-------------------------|-------------------------|
-4-----------4-----------|--5-----------5----------|--7-----------7----------|


 E  E  E  E  E  E  Q        E  E  E  E  E  E  Q       E  E  E  E  E  E  E  E   
----------0--------------|-----------0-------------|-----0-----------0-------|
----9-----------9--L-----|-----4-----------4--L----|-----------5-----------5-|
-------------------------|-------------------------|-------------------------|
-------0-----------------|--------0----------------|--------0-----------0----|
-------------------------|-------------------------|-------------------------|
-9-----------9-----------|--4-----------4----------|--5-----------5----------|


 E  E  E  E  E  E  E  E     E  E  E  E  E  E  Q       E  E  E  E  E  E  Q     
----0-----------0--------|-----------0-------------|-----------0-------------|
----------5-----------5--|-----9-----------9--L----|-----4-----------4--L----|
-------------------------|-------------------------|-------------------------|
-------0-----------0-----|--------0----------------|--------0----------------|
-------------------------|-------------------------|-------------------------|
-5-----------5-----------|--9-----------9----------|--4-----------4----------|


 E  E  E  E  E  E  E  E     E  E  E  E  E  E  E  E    E  E  E  E  E  E  Q     
----0-----------0--------|-----------0-----------0-|-----------0-------------|
----------5-----------5--|-----7-----------7-------|-----9-----------9--L----|
-------------------------|-------------------------|-------------------------|
-------0-----------0-----|--------0-----------0----|--------0----------------|
-------------------------|-------------------------|-------------------------|
-5-----------5-----------|--7-----------7----------|--9-----------9----------|


 E  E  E  E  E  E  Q        E  E  E  E  E  E  E  E    E  E  E  E  E  E  E  E   
----------0--------------|-----0-----------0-------|-----0-----------0-------|
----4-----------4--L-----|-----------5-----------5-|-----------5-----------5-|
-------------------------|-------------------------|-------------------------|
-------0-----------------|--------0-----------0----|--------0-----------0----|
-------------------------|-------------------------|-------------------------|
-4-----------4-----------|--5-----------5----------|--5-----------5----------|


 E  E  E  E  E  E  Q        E  E  E  E  E  E  E  E    E  E  E  E  E  E  E  E   
----0-----------0--------|-----0-----------0-------|-----0-----------0-------|
----------9--------------|-----------4-----------4-|-----------5-----------5-|
-------------------------|-------------------------|-------------------------|
-------0-----------0-----|--------0-----------0----|--------0-----------0----|
-------------------------|-------------------------|-------------------------|
-9-----------9-----------|--4-----------4----------|--5-----------5----------|


 E  E  E  E  E  E  E  E     E  E  E  E  E  E  Q       E  E  E  E  E  E  Q     
----------0-----------0--|-----------0-------------|-----------0-------------|
----7-----------7--------|-----9-----------9--L----|-----4-----------4--L----|
-------------------------|-------------------------|-------------------------|
-------0-----------0-----|--------0----------------|--------0----------------|
-------------------------|-------------------------|-------------------------|
-7-----------7-----------|--9-----------9----------|--4-----------4----------|


 E  E  E  E  E  E  E  E     E  E  E  E  E  E  E  E    E  E  E  E  E  E  Q     
----0-----------0--------|-----0-----------0-------|-----0-----------0-------|
----------5-----------5--|-----------5-----------5-|-----------9-------------|
-------------------------|-------------------------|-------------------------|
-------0-----------0-----|--------0-----------0----|--------0-----------0----|
-------------------------|-------------------------|-------------------------|
-5-----------5-----------|--5-----------5----------|--9-----------9----------|


 E  E  E  E  E  E  E  E     E  E  E  E  E  E  E  E    E  E  E  E  E  E  E  E   
----0-----------0--------|-----0-----------0-------|-----------0-----------0-|
----------4-----------4--|-----------5-----------5-|-----7-----------7-------|
-------------------------|-------------------------|-------------------------|
-------0-----------0-----|--------0-----------0----|--------0-----------0----|
-------------------------|-------------------------|-------------------------|
-4-----------4-----------|--5-----------5----------|--7-----------7----------|


 E  E  E  E  E  E  Q        E  E  E  E  E  E  E  E    W                 
----------0--------------|-----0-----------0-------|--0----------------------|
----9-----------9--L-----|-----------4-----------4-|--5----------------------|
-------------------------|-------------------------|--0----------------------|
-------0-----------------|--------0-----------0----|--0----------------------|
-------------------------|-------------------------|--5----------------------|
-9-----------9-----------|--4-----------4----------|--5----------------------|


  W                         E  E  E  E  E  E  E  E    E  E  E  E  E  E  Q     
-L-----------------------|-----0-----------0-------|-----0-----------0-------|
-L-----------------------|-----------5-----------5-|-----------9-------------|
-L-----------------------|-------------------------|-------------------------|
-L-----------------------|--------0-----------0----|--------0-----------0----|
-L-----------------------|-------------------------|-------------------------|
-L-----------------------|--5-----------5----------|--9-----------9----------|


 E  E  E  E  E  E  E  E     E  E  E  E  E  E  E  E    E  E  E  E  E  E  E  E   
----0-----------0--------|-----0-----------0-------|-----0-----------0-------|
----------4-----------4--|-----------5-----------5-|-----------5-----------5-|
-------------------------|-------------------------|-------------------------|
-------0-----------0-----|--------0-----------0----|--------0-----------0----|
-------------------------|-------------------------|-------------------------|
-4-----------4-----------|--5-----------5----------|--5-----------5----------|


 E  E  E  E  E  E  Q        E  E  E  E  E  E  E  E    W                 
-----0-----------0-------|-----0-----------0-------|--0----------------------|
-----------9-------------|-----------4-----------4-|--5----------------------|
-------------------------|-------------------------|--0----------------------|
--------0-----------0----|--------0-----------0----|--0----------------------|
-------------------------|-------------------------|--5----------------------|
--9-----------9----------|--4-----------4----------|--5----------------------|


  W                   W                   W                   W                  
------------------|-------------------|-------------------|-----------------||
-L----------------|--L----------------|--L----------------|--L--------------||
-L----------------|--L----------------|--L----------------|--L--------------||
-L----------------|--L----------------|--L----------------|--L--------------||
-L----------------|--L----------------|--L----------------|--L--------------||
-L----------------|--L----------------|--L----------------|--L--------------||




Duration Legend
---------------
W - whole
H - half
Q - quarter
E - 8th
S - 16th
T - 32nd
X - 64th
. - note dotted
|-n-|  - n-tuplets


Tablature Legend
----------------
L - tied note
/ - slide in from below
Tap to rate this tab
# A B C D E F G H I J K L M N O P Q R S T U V W X Y Z