Dishwalla - Truth Serum tab

TRUTH SERUM by Dishwalla


INTRO:

e|-5----4----3----2----|
B|-3----3----3----3----|
G|-4----4----4----4----| 2x
D|---------------------|
A|-2----2----2----2----|
E|---------------------|


VERSE:

e|-5----4----3----2---- then: guitar 2: -2/10-----------------|
B|-3----3----3----3-------------------------------------------|
G|-4----4----4----4-------------------------------------------|
D|------------------------------------------------------------|
A|-2----2----2----2-------------------------------------------|
E|------------------------------------------------------------|

e|-5----4----3----2---- then: guitar 2: -2/14-----------------|
B|-3----3----3----3-------------------------------------------|
G|-4----4----4----4-------------------------------------------|
D|------------------------------------------------------------|
A|-2----2----2----2-------------------------------------------|
E|------------------------------------------------------------|


REFRAIN:

guitar 1:

e|-5--5---4--4---5--5---4----|
B|-3--3---3--3---3--3---3----|
G|-4------4------4------4----|
D|---------------------------|
A|-2------2------2------2----|
E|---------------------------|

guitar 2:

e|---------------------------|
B|-7--5/7\5--3/5\3--5/7\5----|
G|---------------------------|
D|---------------------------|
A|---------------------------|
E|---------------------------|


CHORUS:
D             E                        G
 They always say the truth will find a way
    E
 It makes you sick cause you can't fake it
D             E                        G
 They always say the truth will find a way
E
 Truth serum is in your veins


ADLIB: do VERSE chord pattern

e|----------    ------|
B|----------    ------|
G|---------- 3x ------|
D|-4-2-4/6--    -4~---|
A|----------    ------|
E|----------    ------|

etc..


NITRAM
06-19-10
06:47 AM
Tap to rate this tab
 
# A B C D E F G H I J K L M N O P Q R S T U V W X Y Z