Dishwalla - Collide tab

        Dishwalla - Collide

INTRO

Am - F - Am -  F - Am - G - F - C~

PRE-VERSE

|-----------0----|
|-------------1~-|
|----------------|
|-------3--------|
|-3-(3)---3------|
|----------------|

VERSE

|----------------|-----------0----|
|-----------1~---|-------------1~-|
|----------------|----------------|
|-------2--------|-------3--------|
|-3-(3)---3------|-3-(3)---3------|
|----------------|----------------|
Tap to rate this tab
 
# A B C D E F G H I J K L M N O P Q R S T U V W X Y Z