Song name
# A B C D E F G H I J K L M N O P Q R S T U V W X Y Z

Dishwalla - Counting Blue Cars tab

Counting Blue Cars
Dishwalla

Intro

e-------------0------------0-------------0---------0------------|
B--------------0------------0-------------0---------0-----------|
G---4-4-----4----4--------9---9---------7--7------7-----9-9-9-9-|
D---4-4-----4----4--------9---9---------7---------7-----9-9-9-9-|
A---0-0-2-2-2----2----7-7-7---7-----5-5-5-----5-5-5-----7-7-7-7-|
E---------------------------------------------------------------|

e-------------0------------0-------------0---------0------------|
B--------------0------------0-------------0---------0-----------|
G-----------4----4--------9---9---------7--7------7-----9-9-9-9-|
D-----------4----4--------9---9---------7---------7-----9-9-9-9-|
A-------2-2-2----2----7-7-7---7-----5-5-5-----5-5-5-----7-7-7-7-|
E---------------------------------------------------------------|




Verse 1

Must have been mid afternoon
I could tell by how far the child's shadow stretched out

e------0--------0---------0-----0------------|
B-------0--------0---------0-----0-----------|
G-----4--4-----9--9------7--7--7-----9-9-9-9-|
D----4--------9---------7-----7------9-9-9-9-|
A---2--------7---------5-----5-------7-7-7-7-|
E--------------------------------------------|

e------0--------0------|
B-------0--------0-----|
G-----4--4-----9--9----|
D----4--------9------5-|
A---2--------7-------5-|
E--------------------3-|

He walks with a purpose
In his sneakers, down the street, he had
Many questions, like children often do
He said

Chorus 1


D       E                    G
Tell me all your thoughts on God

D       E         G          B
Tell me am I very far


Verse 2

Must have been late afternoon

e--------------------|
B--------------------|
G------9-6b7r6b7r6-4-|
D---5/9--------------|
A--------------------|
E--------------------|

On our way the sun broke free of the clouds


e------0--------0---------0-----0------------|
B-------0--------0---------0-----0-----------|
G-----4--4-----9--9------7--7--7-----9-9-9-9-|
D----4--------9---------7-----7------9-9-9-9-|
A---2--------7---------5-----5-------7-7-7-7-|
E--------------------------------------------|

e------0--------0------|
B-------0--------0-----|
G-----4--4-----9--9----|
D----4--------9------5-|
A---2--------7-------5-|
E--------------------3-|

We count only blue cars
Skip the cracks, in the street, and ask
Many questions, like children often do
We said

Chorus 2

D       E                    G
Tell me all your thoughts on God
Cause I'd really like to meet her

D           E                G
And ask her why we're who we are

D       E                    G
Tell me all your thoughts on God
'Cause I'd really like to meet her

D          E         G
So tell me am I very faaaaaar
Am I very far now


Solo

e-------7-----------7-----------7-------------------------|
B----------10----------10----------10---7b8r7-------------|
G---7-7--7------7-7--7------7-7--7------------9-6b7r6-4-2-|
D---------------------------------------------------------|
A---------------------------------------------------------|
E---------------------------------------------------------|

e-------7-------------------7--------------7-------------------------|
B----------10--7h8p7-7---------10-------------10---7b8r7-------------|
G---7-7--7----------9---7-7--7---------7-7--7------------9-6b7r6b7r6-|
D--------------------------------------------------------------------|
A--------------------------------------------------------------------|
E--------------------------------------------------------------------|

Verse 3

B            A            G
It's getting colder, pick up the pace
B       A               G
How our shoes make hard noises in this place
B   A
Our clothes are stained
G
We pass many, cross-eyed people and ask
B    A               G
Many questions, like children often do


Chorus 3

D       E                    G
Tell me all your thoughts on God
Cause I'd really like to meet her

D           E                G
And ask her why we're who we are

D       E                    G
Tell me all your thoughts on God
'Cause I'd really like to meet her

D          E         G
So tell me am I very faaaaaar
Am I very far now


Solo

e-------7-----------7-----------7-------------------------|
B----------10----------10----------10---7b8r7-------------|
G---7-7--7------7-7--7------7-7--7------------9-6b7r6-4-2-|
D---------------------------------------------------------|
A---------------------------------------------------------|
E---------------------------------------------------------|

e-------7-----------7-----------7---------------------|
B----------10----------10----------10---7b8--7b8-7----|b8/
G---7-7--7------7-7--7------7-7--7------7b8--7b8-7----|b8/
D-----------------------------------------------------|
A-----------------------------------------------------|
E-----------------------------------------------------|

e------------------------------------------------------------|
B-----------10-----------------------------------------------|
G---7-7-77--7--7-7-7-7-7---7-7-7-7-7---7-7-7-7-6b7r6b7r6b7r6-|
D------------------------------------------------------------|
A------------------------------------------------------------|
E------------------------------------------------------------|
Tap to rate this tab
 
# A B C D E F G H I J K L M N O P Q R S T U V W X Y Z