Song name
# A B C D E F G H I J K L M N O P Q R S T U V W X Y Z

Dishwalla - Until I Wake Up tab

-------------------------------------------------------------------
		                   Until I Wake Up -- Dishwalla
-------------------------------------------------------------------
Tabbed by: zokblik


Main Riff
-This simple position emphasizes ringing rather than sliding

e|---0---0---0---0---0---4---0-------0-------0-------0---0---0---0-|
B|---------------------------------------4-------4-----------------|
G|-----------------------------------------------------------------|
D|-----2---2---2-------2---2---2-------2---2---2-------2---2---2---|
A|-0---------------4-------------------------------0---------------|
E|---------------------------------4-------------------------------|


Chorus Chords
-Listen to the song for the strumming rhythm
-Alternatively, you can play the chords listed without the open strings

   A      C#m     G#m      A       B      C#m     G#m      A
e|-0-------0-------0-------0-------0-------0-------0-------0-------|
B|-0-------0-------0-------0-------0-------0-------0-------0-------|
G|-6-------9-------4-------6-------8-------9-------4-------6-------|
D|-7-------11------6-------7-------9-------11------6-------7-------|
A|-7-------11------6-------7-------9-------11------6-------7-------|
E|-5-------9-------4-------5-------7-------9-------4-------5-------|
Tap to rate this tab
 
# A B C D E F G H I J K L M N O P Q R S T U V W X Y Z