Song name
# A B C D E F G H I J K L M N O P Q R S T U V W X Y Z

Dishwalla - Charlie Browns Parents tab

Charlie Brown's Parents
Dishwalla

Intro:

E------------------------------------------------------------5-------------|
B------------------------------6------------------7----------5-5h6p5-----5-|
G-----------6--------------6-------6----------7-------7------6-------7-7---|
D-------7-------7--------6---6---6---6------7---7---7---7----7-------------|
A-----7---7---7---7----4---------------4--5---------------5--7-------------|
E---5---------------5----------------------------------------5-------------|

Chorus 1:

E------------------------------------------------------------5---------|
B------------------------------6------------------7----------5-5-3-3/5-|
G-----------6--------------6-------6----------7-------7------6---------|
D-------7-------7--------6---6---6---6------7---7---7---7----7---------|
A-----7---7---7---7----4---------------4--5---------------5--7---------|
E---5---------------5----------------------------------------5---------|

E------------------------------------------------------------5-|
B------------------------------6------------------7----------5-|
G-----------6--------------6-------6----------7-------7------6-|
D-------7-------7--------6---6---6---6------7---7---7---7----7-|
A-----7---7---7---7----4---------------4--5---------------5--7-|
E---5---------------5----------------------------------------5-|

E-----------------------------------------------------------------|
B-----------------------------------------------------------------|
G-----------------------------------------------------------------|
D-----------------------------------------------------------------|
A-----------------------------------------------------------------|
E---9-8-7-6-5-4-3---9-8-7-6-5-4-3---9-8-7-6-5-4-3---9-8-7-6-5-4-3-|

E-----------------------------------------------------|
B-----------------------------------------------------|
G---3-3-3-3-3-3-3-3-----------------8-8-8-8-8-8-8-8-7-|
D---4-4-4-4-4-4-4-4-7-7-7-7-7-7-7-7-8-8-8-8-8-8-8-8-7-|
A---4-4-4-4-4-4-4-4-7-7-7-7-7-7-7-7-6-6-6-6-6-6-6-6-5-|
E---2-2-2-2-2-2-2-2-5-5-5-5-5-5-5-5-------------------|

Verse 1:

E----------------------------------------------------------------------|
B----------------------------------------------------------------------|
G----11--11--11--11--11--11--11--1111-11--11--11--11--11--11--11--1111-|
D----11--11--11--11--11--11--11--1111-11--11--11--11--11--11--11--1111-|
A-----9---9---9---9---9---9---9---9-9--9---9---9---9---9---9---9---9-9-|
E----------------------------------------------------------------------|

E-----------------------------------------------------------------|
B-----------------------------------------------------------------|
G----11-111111--14--14-14-14--16--16-16-16--16-161111111111111111-|
D----11-111111--14--14-14-14--16--16-16-16--16-161111111111111111-|
A-----9--9-9-9--12--12-12-12--14--14-14-14--14-14-9-9-9-9-9-9-9-9-|
E-----------------------------------------------------------------|

E-----------------------------------------------------------------|
B-----------------------------------------------------------------|
G----11-111111--14--14-14-14--16--16-16-16--16-161111111111111111-|
D----11-111111--14--14-14-14--16--16-16-16--16-161111111111111111-|
A-----9--9-9-9--12--12-12-12--14--14-14-14--14-14-9-9-9-9-9-9-9-9-|
E-----------------------------------------------------------------|

E-------------------------------------------------------------------|
B-------------------------------------------------------------------|
G---3-3-3-3-3-3-3-3-----------------8-8-8-8-8-8-8-8-7-7-7-7-7-7-7-7-|
D---4-4-4-4-4-4-4-4-7-7-7-7-7-7-7-7-8-8-8-8-8-8-8-8-7-7-7-7-7-7-7-7-|
A---4-4-4-4-4-4-4-4-7-7-7-7-7-7-7-7-6-6-6-6-6-6-6-6-5-5-5-5-5-5-5-5-|
E---2-2-2-2-2-2-2-2-5-5-5-5-5-5-5-5---------------------------------|

E-------------------------------------------------------------------|
B-------------------------------------------------------------------|
G---3-3-3-3-3-3-3-3-----------------8-8-8-8-8-8-8-8-7-7-7-7-7-7-7-7-|
D---4-4-4-4-4-4-4-4-7-7-7-7-7-7-7-7-8-8-8-8-8-8-8-8-7-7-7-7-7-7-7-7-|
A---4-4-4-4-4-4-4-4-7-7-7-7-7-7-7-7-6-6-6-6-6-6-6-6-5-5-5-5-5-5-5-5-|
E---2-2-2-2-2-2-2-2-5-5-5-5-5-5-5-5---------------------------------|

Chorus 2:

E-------------------------------------------------------------------|
B-------------------------------------------------------------------|
G---3-3-3-3-3-3-3-3-----------------8-8-8-8-8-8-8-8-7-7-7-7-7-7-7-7-|
D---4-4-4-4-4-4-4-4-7-7-7-7-7-7-7-7-8-8-8-8-8-8-8-8-7-7-7-7-7-7-7-7-|
A---4-4-4-4-4-4-4-4-7-7-7-7-7-7-7-7-6-6-6-6-6-6-6-6-5-5-5-5-5-5-5-5-|
E---2-2-2-2-2-2-2-2-5-5-5-5-5-5-5-5---------------------------------|

E-----------------------------------------------------|
B-----------------------------------------------------|
G---3-3-3-3-3-3-3-3-----------------8-8-8-8-8-8-8-8-7-|
D---4-4-4-4-4-4-4-4-7-7-7-7-7-7-7-7-8-8-8-8-8-8-8-8-7-|
A---4-4-4-4-4-4-4-4-7-7-7-7-7-7-7-7-6-6-6-6-6-6-6-6-5-|
E---2-2-2-2-2-2-2-2-5-5-5-5-5-5-5-5-------------------|

Verse 2:

E----------------------------------------------------------------------|
B----------------------------------------------------------------------|
G----11--11--11--11--11--11--11--1111-11--11--11--11--11--11--11--1111-|
D----11--11--11--11--11--11--11--1111-11--11--11--11--11--11--11--1111-|
A-----9---9---9---9---9---9---9---9-9--9---9---9---9---9---9---9---9-9-|
E----------------------------------------------------------------------|

E-----------------------------------------------------------------|
B-----------------------------------------------------------------|
G----11-111111--14--14-14-14--16--16-16-16--16-161111111111111111-|
D----11-111111--14--14-14-14--16--16-16-16--16-161111111111111111-|
A-----9--9-9-9--12--12-12-12--14--14-14-14--14-14-9-9-9-9-9-9-9-9-|
E-----------------------------------------------------------------|

E-----------------------------------------------------------------|
B-----------------------------------------------------------------|
G----11-111111--14--14-14-14--16--16-16-16--16-161111111111111111-|
D----11-111111--14--14-14-14--16--16-16-16--16-161111111111111111-|
A-----9--9-9-9--12--12-12-12--14--14-14-14--14-14-9-9-9-9-9-9-9-9-|
E-----------------------------------------------------------------|

E-------------------------------------------------------------------|
B-------------------------------------------------------------------|
G---3-3-3-3-3-3-3-3-----------------8-8-8-8-8-8-8-8-7-7-7-7-7-7-7-7-|
D---4-4-4-4-4-4-4-4-7-7-7-7-7-7-7-7-8-8-8-8-8-8-8-8-7-7-7-7-7-7-7-7-|
A---4-4-4-4-4-4-4-4-7-7-7-7-7-7-7-7-6-6-6-6-6-6-6-6-5-5-5-5-5-5-5-5-|
E---2-2-2-2-2-2-2-2-5-5-5-5-5-5-5-5---------------------------------|

E-------------------------------------------------------------------|
B-------------------------------------------------------------------|
G---3-3-3-3-3-3-3-3-----------------8-8-8-8-8-8-8-8-7-7-7-7-7-7-7-7-|
D---4-4-4-4-4-4-4-4-7-7-7-7-7-7-7-7-8-8-8-8-8-8-8-8-7-7-7-7-7-7-7-7-|
A---4-4-4-4-4-4-4-4-7-7-7-7-7-7-7-7-6-6-6-6-6-6-6-6-5-5-5-5-5-5-5-5-|
E---2-2-2-2-2-2-2-2-5-5-5-5-5-5-5-5---------------------------------|

Chorus 3:

E-------------------------------------------------------------------|
B-------------------------------------------------------------------|
G---3-3-3-3-3-3-3-3-----------------8-8-8-8-8-8-8-8-7-7-7-7-7-7-7-7-|
D---4-4-4-4-4-4-4-4-7-7-7-7-7-7-7-7-8-8-8-8-8-8-8-8-7-7-7-7-7-7-7-7-|
A---4-4-4-4-4-4-4-4-7-7-7-7-7-7-7-7-6-6-6-6-6-6-6-6-5-5-5-5-5-5-5-5-|
E---2-2-2-2-2-2-2-2-5-5-5-5-5-5-5-5---------------------------------|

E-----------------------------------------------------|
B-----------------------------------------------------|
G---3-3-3-3-3-3-3-3-----------------8-8-8-8-8-8-8-8-7-|
D---4-4-4-4-4-4-4-4-7-7-7-7-7-7-7-7-8-8-8-8-8-8-8-8-7-|
A---4-4-4-4-4-4-4-4-7-7-7-7-7-7-7-7-6-6-6-6-6-6-6-6-5-|
E---2-2-2-2-2-2-2-2-5-5-5-5-5-5-5-5-------------------|

Outro:

E-----------------------------------------------------------------|
B-----------------------------------------------------------------|
G-----------------------------------------------------------------|
D-----------------------------------------------------------------|
A-----------------------------------------------------------------|
E---9-8-7-6-5-4-3---9-8-7-6-5-4-3---9-8-7-6-5-4-3---9-8-7-6-5-4-3-|

E-------------------------------------------------------------------|
B-------------------------------------------------------------------|
G---3-3-3-3-3-3-3-3-----------------8-8-8-8-8-8-8-8-7-7-7-7-7-7-7-7-|
D---4-4-4-4-4-4-4-4-7-7-7-7-7-7-7-7-8-8-8-8-8-8-8-8-7-7-7-7-7-7-7-7-|
A---4-4-4-4-4-4-4-4-7-7-7-7-7-7-7-7-6-6-6-6-6-6-6-6-5-5-5-5-5-5-5-5-|
E---2-2-2-2-2-2-2-2-5-5-5-5-5-5-5-5---------------------------------|

E-------------------------------------------------------------------|
B-------------------------------------------------------------------|
G---3-3-3-3-3-3-3-3-----------------8-8-8-8-8-8-8-8-7-7-7-7-7-7-7-7-|
D---4-4-4-4-4-4-4-4-7-7-7-7-7-7-7-7-8-8-8-8-8-8-8-8-7-7-7-7-7-7-7-7-|
A---4-4-4-4-4-4-4-4-7-7-7-7-7-7-7-7-6-6-6-6-6-6-6-6-5-5-5-5-5-5-5-5-|
E---2-2-2-2-2-2-2-2-5-5-5-5-5-5-5-5---------------------------------|

E-------------------------------------------------------------------|
B-------------------------------------------------------------------|
G---3-3-3-3-3-3-3-3-----------------8-8-8-8-8-8-8-8-7-7-7-7-7-7-7-7-|
D---4-4-4-4-4-4-4-4-7-7-7-7-7-7-7-7-8-8-8-8-8-8-8-8-7-7-7-7-7-7-7-7-|
A---4-4-4-4-4-4-4-4-7-7-7-7-7-7-7-7-6-6-6-6-6-6-6-6-5-5-5-5-5-5-5-5-|
E---2-2-2-2-2-2-2-2-5-5-5-5-5-5-5-5---------------------------------|

E-------------------------------------------------------------------|
B-------------------------------------------------------------------|
G---3-3-3-3-3-3-3-3-----------------8-8-8-8-8-8-8-8-7-7-7-7-7-7-7-7-|
D---4-4-4-4-4-4-4-4-7-7-7-7-7-7-7-7-8-8-8-8-8-8-8-8-7-7-7-7-7-7-7-7-|
A---4-4-4-4-4-4-4-4-7-7-7-7-7-7-7-7-6-6-6-6-6-6-6-6-5-5-5-5-5-5-5-5-|
E---2-2-2-2-2-2-2-2-5-5-5-5-5-5-5-5---------------------------------|
Tap to rate this tab
 
# A B C D E F G H I J K L M N O P Q R S T U V W X Y Z