Song name
# A B C D E F G H I J K L M N O P Q R S T U V W X Y Z

Dishwalla - Far Away chords

Far Away
Dishwalla

Intro:

e---3--3--3-3-3-3-3-3-3--3--3-3-3-3-3-3-3--3--3-3-3-3-3-3-3--3--3-3-3-3-3-3-|
B---3--3--3-3-3-3-3-3-3--3--3-3-3-3-3-3-3--3--3-3-3-3-3-3-3--3--3-3-3-3-3-3-|
G---0--0--0-0-0-0-0-0-0--0--0-0-0-0-0-0-0--0--0-0-0-0-0-0-0--0--0-0-0-0-0-0-|
D---0--0--0-0-0-0-0-0-0--0--0-0-0-0-0-0-0--0--0-0-0-0-0-0-2--2--2-2-2-2-2-2-|
A---2--2--2-2-2-2-2-2-2--2--2-2-2-2-2-2-2--2--2-2-2-2-2-2-2--2--2-2-2-2-2-2-|
E---3--3--3-3-3-3-3-3-3--3--3-3-3-3-3-3-0--0--0-0-0-0-0-0-------------------|

e---3--3--3-3-3-3-3-3-3--3--3-3-3-3-3-3-3--3--3-3-3-3-3-3-3--3--3-3-3-3-3-3-|
B---3--3--3-3-3-3-3-3-3--3--3-3-3-3-3-3-3--3--3-3-3-3-3-3-3--3--3-3-3-3-3-3-|
G---0--0--0-0-0-0-0-0-0--0--0-0-0-0-0-0-0--0--0-0-0-0-0-0-0--0--0-0-0-0-0-0-|
D---0--0--0-0-0-0-0-0-0--0--0-0-0-0-0-0-0--0--0-0-0-0-0-0-2--2--2-2-2-2-2-2-|
A---2--2--2-2-2-2-2-2-2--2--2-2-2-2-2-2-2--2--2-2-2-2-2-2-2--2--2-2-2-2-2-2-|
E---3--3--3-3-3-3-3-3-3--3--3-3-3-3-3-3-0--0--0-0-0-0-0-0-------------------|
Tap to rate this tab
 
# A B C D E F G H I J K L M N O P Q R S T U V W X Y Z