Song name
# A B C D E F G H I J K L M N O P Q R S T U V W X Y Z

Dishwalla - Explode tab

Explode
Dishwalla

Intro:

e--------------------------------------------------------|
B--------------------------------------------------------|
G---4-4--4-4-4--4-5-5--5-7-7--4-4-4--4-4-4--4-5-5--5-7-7-|
D---4-4--4-4-4--4-5-5--5-7-7--4-4-4--4-4-4--4-5-5--5-7-7-|
A---2-2--2-2-2--2-3-3--3-5-5--2-2-2--2-2-2--2-3-3--3-5-5-|
E--------------------------------------------------------|

e-----------------------------------------------------------|
B-----------------------------------------------------------|
G---4-4--4-4-4--4-5-5--5-7-7--4-4-4--4-4-4--4-5-5--5-7-7--4-|
D---4-4--4-4-4--4-5-5--5-7-7--4-4-4--4-4-4--4-5-5--5-7-7--4-|
A---2-2--2-2-2--2-3-3--3-5-5--2-2-2--2-2-2--2-3-3--3-5-5--2-|
E-----------------------------------------------------------|
Tap to rate this tab
 
# A B C D E F G H I J K L M N O P Q R S T U V W X Y Z