Song name
# A B C D E F G H I J K L M N O P Q R S T U V W X Y Z

Dishwalla - Counting Blue Cars Acoustic tab

Help us improve GuitareTab! Take a short survey!
This is the intro to the acoustic version of Dishwalla's "Counting Blue Cars".
I couldn't find it anywhere on the net, so I did it myself.

As usual, I'm lazy enough to not bother to time it that correctly. It's fairly
accurate, but probably not perfect. It's easy to pick it up from the song though,
so no worries.

E----------------------------------------------------------------
B-5/7-----------10--12--5-----------3-2h5-5/7-3p0-----------2/3-
G----------------------------------------------------------------
D----------------------------------------------------------------
A----------------------------------------------------------------
E----------------------------------------------------------------

E---------------------------------------------2------------------
B-2---------------------6/7-7-3p2--2h3p2p0h2h3----0--3-0------/12
G---2-------------------------------------------2----------------
D-----2-2-3/4----------------------------------------------------
A----------------------------------------------------------------
E----------------------------------------------------------------

E----------------------------------------------------------------
B-10--7--5-3-2-0-------------------------------------------------
G----------------------------------------------------------------
D----------------------------------------------------------------
A----------------------------------------------------------------
E----------------------------------------------------------------
Related for Counting Blue Cars Acoustic tab