Song name
# A B C D E F G H I J K L M N O P Q R S T U V W X Y Z

Dishwalla - Until I Wake Up tab

Band- Dishwalla
Song- Until I Wake Up
Tuning- Standard
Tabbed By- David Pearce (the.end.is.forever@gmail.com)

Hey, this is a pretty cool song. This is all my own work. Been able to play it for a
while now but never got round to putting it online....but here it is! Its not the most
complicated of songs but its still fun to play. Enjoy!


Main Riff

e----0---0---0---0------0---0--4h0---0---0---0------0--------0---0---0---0--
B------------------------------------------------4------4---------------------
G-----------------------------------------------------------------------------
D-----------------------------------------------------------------------------
A--4---4---4---4---4/7----7---7----7---7-------------------------------------
E------------------------------------------4---4---4---4---5---5---5---5------


Chorus - Play each chord four times !IMPORTANT!- Listen carefully for the slide

e--------------------------------
B--------------------------------
G--------------------------------
D--7--2--6--7--7/9--9--11--6--7--
A--7--2--6--7--7/9--9--11--6--7--
E--5--0--4--5--5/7--7--9---4--5--
 
In chord form thats: A, Em, Am, A, A/Bm, Bm, CSharp, Am, A

Thats about it! Listen to the song and just put the parts where they need to go.

Cheers
David
Tap to rate this tab
# A B C D E F G H I J K L M N O P Q R S T U V W X Y Z