Song name
# A B C D E F G H I J K L M N O P Q R S T U V W X Y Z

Dishwalla - Opaline tab

Help us improve GuitareTab! Take a short survey!
Opaline - Dishwalla

Tuning (low to high): Eb Ab Db Gb Bb eb
(Standard tuning down one half step)

Verse and Chorus chords
eb----0----2----1----0----|
Bb----2----3----3----2----|
Gb----2----2----2----2----|
Db----2----0----0----2----|
Ab----0--------------0----|
Eb------------------------|

Small guitar part played throughout song
eb----------------------------------------------------------------|
Bb----------------8--8--8/7--7------------------------------------|
Gb--6--7--7/9--9----------------6--6--7--7/9--9--7--7--7\6--6--6--|
Db----------------------------------------------------------------|
Ab----------------------------------------------------------------|
Eb----------------------------------------------------------------|

Bridge (repeat)
eb----------------------------------------|
Bb----------------------------------------|
Gb---7-7-7/9-9-9-X-X--9/10-10-X-X--10\7---|
Db---X-X-X-X-X-X-X-X--X--X--X-X-X---X-X---|
Ab---5-5-5/7-7-7-X-X--7/ 8--8-X-X---8\5---|
Eb----------------------------------------|
Related for Opaline tab