Song name
# A B C D E F G H I J K L M N O P Q R S T U V W X Y Z

Dishwalla - Creeps In The Stone tab

Help us improve GuitareTab! Take a short survey!
Dishwalla - Creeps In The Stone

Submitted by: GM
E-mail:	ibanezjs17@hotmail.com


---3------3-------3--------2------2------2-------|
-----3------3-------3--------3------3------3-----|
-------2------2----------------2------2----------|
-------------------------------------------------|
-------------------------------------------------|
-------------------------------------------------|

-------------------------------------------------|
-----1------1-------1--------0------0------0-----|
-------2------2-------2--------2------2------2---|
---------0------0----------------0------0--------|
-------------------------------------------------|
-------------------------------------------------|

---3------3-------3--------2------2------2-------|
-----3------3-------3--------3------3------3-----|
-------2------2----------------2------2----------|
-------------------------------------------------|
-------------------------------------------------|
-------------------------------------------------|

---8------8-------8--------7-------7------7------|
-----10-----10-------10------10------10------10--|
--------7-------7----------------7-------7-------|
-------------------------------------------------|
-------------------------------------------------|
-------------------------------------------------|
Related for Creeps In The Stone tab