Song name
# A B C D E F G H I J K L M N O P Q R S T U V W X Y Z

Dishwalla - Pretty Babies tab

i cant believe you guys dont have the tab for this song its amazing DISHWALLA ROCKS enjoy


[Intro]
=======
E|---------2-------------------------------2---------------------------------|
B|-------------1-------------------------------1---------1---3---------------|
G|---------------------------------------------------------------------------|
D|-0---0-0-------------------------0---0-0-----------0-----------------------|
A|---------------------------------------------------------------------------|
E|---------------------------------------------------------------------------|

E|---------2-----------------------------------------------------2-----------|
B|-------------1---------1---3------3h5------------------------------1-------|
G|-----------------------------------------------2---------------------------|
D|-0---0-0-----------0-----------------------0-----------0---0-0-----------0-|
A|---------------------------------------------------------------------------|
E|---------------------------------------------------------------------------|

E|-----------------------------------------------2---------------------------|
B|--1---3-----3/5-5-5-5-5-5-5-5-5-5-5-5--------------1---------1---3-----/5--|
G|------------2/4-4-4-4-4-4-4-4-4-4-4-4----------------------------------/4--|
D|---------------------------------------0---0-0-----------0-----------------|
A|---------------------------------------------------------------------------|
E|---------------------------------------------------------------------------|

E|-------------------------2-------------------------------------------------|
B|-0---------------------------1---------1---3-----3/5-5-5-5-5-5-8-8-8-8-8-7-|
G|-0---------2-------------------------------------2/4-4-4-4-4-4-7-7-7-7-7-6-|
D|-------0---------0---0-0-----------0---------------------------------------|
A|---------------------------------------------------------------------------|
E|---------------------------------------------------------------------------|

E|---------2-------------------------------------------------------2---------|
B|-------------1---------1---3-----0---3-/-5---------------------------1-----|
G|---------------------------------0---2-/-4--------2------------------------|
D|-0---0-0-----------0--------------------------0----------0---0-0-----------|
A|---------------------------------------------------------------------------|
E|---------------------------------------------------------------------------|

E|-----------------------------------------|
B|-----1---3-----3/5-5-5-5-5-5-5-5-5-5-5-5-|
G|---------------2/4-4-4-4-4-4-4-4-4-4-4-4-|
D|-0---------------------------------------|
A|-----------------------------------------|
E|-----------------------------------------|


[Bridge]
========
E|-------|-------|-------|-------|
B|-------|-------|-------|-------|
G|---7---|---9---|-------|-------|
D|---7---|---9---|---8---|---5---|
A|---5---|---7---|---8---|---5---|
E|-------|-------|---8---|---5---|


[Fill 1]
========
E|-----------------------|
B|-3---------------------|
G|-2---------------------|
D|-0---------------------|
A|-0---------------------|
E|-0---------------------|


[Verse]
=======
E|----0---------------------------------------------------------------------|
B|---------3--------------------------1-------1-------1-h3---3\-------------|
G|------------2-----------------------2-------2-------2-h2---2\---2----(2)--|
D|-0------------------------------0-------0-------0---------------0----(0)--|
A|--------------------------------------------------------------------------|
E|--------------------------------------------------------------------------|

E|----------------------------------------------------0---------------------|
B|-----5--5--5-/8--8--8--7--7---(7)----------------3-------3------3---------|
G|--2--2--2--2-/7--7--7--6--6---(6)-------------2-------------2---2-strum---|
D|-------------------------------------------0--------------------0---------|
A|--------------------------------------------------------------------------|
E|--------------------------------------------------------------------------|


[Chorus]
========
E|-------|-------|-------|-------|
B|---3---|---3---|---3---|---3---|
G|---2---|---0---|---0---|---0---|
D|---0---|---0---|---0---|---0---|
A|-------|---3---|---2---|---1---|
E|-------|-------|-------|-------|


[Fill 2]
========
  PM..|
E|-------|-------|
B|-------|-------|
G|-------|-------|
D|---3---|---6---|
A|---3---|---6---|
E|---3---|---6---|


[Solo]
======
E|-------------------------------------------------------------------------|
B|-------------------------------------------------------------------------|
G|-------------------------------------------------------------------------|
D|-17--------15--17------------------------17--------15--17----------------|
A|-------------------------------------------------------------------13/15-|
E|---------------------17----15--17---15-----------------------15h17-------|

E|-------------------------------------------------------------------------|
B|-------------------------------------------------------------------------|
G|-------------------------------------------------------12----10--12---10-|
D|---------10h12-12'-------14'--------17-------15--17----------------------|
A|-15h17-------------------------------------------------------------------|
E|-------------------------------------------------------------------------|

E|-------------------------------------------------------------------------|
B|-------------------------------------------------------------------------|
G|---------------------------15h17-17/19---/19--------17--19-----19----17--|
D|-17--------15--17----15h17-----------------------------------------------|
A|-------------------------------------------------------------------------|
E|-------------------------------------------------------------------------|

E|---------------------------------------------------|
B|---------20b------20----(20)\---15b------15--------|
G|-17-h19--------------------------------------------|
D|---------------------------------------------------|
A|---------------------------------------------------|
E|---------------------------------------------------|


[Outro]
=======
E|-------|--------|--------|--------|
B|-------|--------|--------|--------|
G|---7---|---10---|---12---|---15---|
D|---7---|---10---|---12---|---15---|
A|---5---|----8---|---10---|---13---|
E|-------|--------|--------|--------|
Tap to rate this tab
# A B C D E F G H I J K L M N O P Q R S T U V W X Y Z