Song name
# A B C D E F G H I J K L M N O P Q R S T U V W X Y Z

Dishwalla - Bleeding Out tab

Intro: [Listen to strum pattern]


  F . . . . . / . . . / G . . . / E       F . . . . . / . . . / G . . . / E
  F . . . . . / . . . / G . . . / E / A      -[let it ring]


         Play through the verses:

 e[-----------------------------------------------------|
 b[--------0--------------------------------------------|
 g[------2------------2--0--------2---------------------|
 d[----2------------0-----------3---3-------------------|
 a[--0------------2-----------3-------------------------|
 e[-------------3-----------1---------------------------|

 e[-----------------------------------------------------|
 b[--------0--------------------------------------------|
 g[------2------------2--0--------2---------------------|
 d[----2------------0-----------3-----------------------|
 a[--0------------2-----------3-------------------------|
 e[-------------3-----------1---------------------------|


Chorus:

 F         G              E
  Now that I am bleeding out  I pray for something

 F         G              E
  Now that I am bleeding out  I fade to nothing

 F         G              A
  Now that I am bleeding out . . . bleeding out


     [Just continue the song like that].
Tap to rate this tab
 
# A B C D E F G H I J K L M N O P Q R S T U V W X Y Z