Song name
# A B C D E F G H I J K L M N O P Q R S T U V W X Y Z

Dishwalla - Nashville Skyline tab

I know this is one of their older songs,
but it is a great one, so here is the tab.

  CHORDS
            D   G   Em  Asus2
        1---2---3---o---3---|
        2---3---3---o---3---|
        3---2---o---o---2---|
        4---x---o---2---2---|
        5---x---2---2---x---|
        6---x---3---o---x---|

  INTRO
     h         h           V ^^ V   ^ ^V
1---o-2--2-2--o-2--3---|---3--------3---|
2---3----3-3-----------|---3--------3---|
3---2----2-2-----------|---o--------o---|
4---x----x-x-----------|---o--------o---|
5---x----x-x-----------|---2--------2---|
6---x----x-x-----------|---3----3---3---|
    D                      G                 x2

  VERSE

1---2---|---3---         |---o---2---|
2---3---|---3---         |---o---3---|
3---2---|---o---         |---o---2---|
4---x---|---o---         |---2---x---|
5---x---|---2---         |---2---x---|
6---x---|---3---     x4  |---o---x---|     x4
    D       G                Em  D
Repeat all Verse in barre chords.
DG, EmG, DG
(It works with oen chords, too)
  CHORUS

1---o---|---3---|---2---|---3---|
2---o---|---3---|---3---|---3---|
3---o---|---o---|---2---|---2---|
4---2---|---o---|---x---|---2---|
5---2---|---2---|---x---|---x---|
6---o---|---3---|---x---|---x---|     x3
    Em      G       D       Asus2
Last (fourth) time, single strum and stop on Em,
single strum G, then go back to Verse.
Tap to rate this tab
# A B C D E F G H I J K L M N O P Q R S T U V W X Y Z