Song name
# A B C D E F G H I J K L M N O P Q R S T U V W X Y Z

Disidente - Enemigo tab

Afinación en D


Intro

e|---0-------|
B|---6-------|
G|---0-------|   X4 veces después d q empieza la otra guitarra con 4 veces
D|---0-------|
A|---5-------|
D|---0-------|

Empieza la letra:
La tranquilidad, se olvidó de mi...
1.
e|-------------|
B|-------------|
G|---10--------|   Repetir varias veces
D|----0--------|
A|---10--------|
D|-------------|

...tan pronto, tan libre, tan simple y tan fría...
2.
e|-------------|
B|-------------|
G|---12--------|   Repetir varias veces
D|----0--------|
A|---13--------|
D|-------------|

...ahora q me equivoqué, ahora qué me condené...
Repetir 1.
...tengo la desolación de alejarme del telón...
Repetir 2.

e|----------------------------------------------------------------------|
B|----------------------------------------------------------------------|
G|----6---6---7---7---6---6---7---7---6---6---7---7---9---9---7---7-----|
D|----x---x---x---x---x---x---x---x---x---x---x---x---x---x---x---x-----|
A|----4---4---5---5---4---4---5---5---4---4---5---5---7---7---5---5-----|
D|----------------------------------------------------------------------|

...y vez, y tratas de entender, te quedaste en un rincón...
Repetir 1.
...desconocer, hoy te puedo deshacer...
Repetir 2.
...si quieres desaparecer, quieres desaparecer...
Repetir 1.
...si quieres desaparecer, quieres desaparecer...
Repetir 2.

Coro
...despertando a mi enemigo, despertando a mi enemigo...
e|--------------------------------------------------------|
B|--------------------------------------------------------|
G|--------------------------------------------------------|
D|---9--9--9--9--11---11------11---11--11------------ x 2-|
A|---9--9--9--9---9----9------9----9----9-----------------|
D|---9--9--9--9---9----9------9----9----9-----------------|

e|------------------------------------------------------|
B|-------------------10--10----10----10--10-------------|
G|--11---11--11--11--11--11----11----11--11-------------|
D|---9---9---9---9---x----x-----x----x----x-----  x 2---|
A|---9---9---9---9---9----9-----9----9----9-------------|
D|------------------------------------------------------|

Repetir todo x2

Luego...
e|--------------------------------------|
B|---7--7---7--7----7--7---7--7---------|
G|---x--x---x--x----x--x---x--x---------|
D|---9--9---9--9----9--9---9--9---------|
A|---9--9---9--9----9--9---9--9---------|
D|---9--9---9--9----9--9---9--9---------|

Después
e|--------------------------------------------------------------------------|
B|--------------------------------------------------------------------------|
G|----4---4---4---4---4---4---4---4---6---6---6---6---7--7--7--7------------|
D|----x---x---x---x---x---x---x---x---x---x---x---x---x--x--x--x------------| x2
A|----2---2---2---2---2---2---2---2---2---4---4---4---5--5--5--5------------|
D|--------------------------------------------------------------------------|

e|-----------------------------------------------------------------|
B|-----------------------------------------------------------------|
G|----9--9---11-11--9---9--11--11----9---9---11-11-----------------|
D|----x---x---x--x--x---x---x---x----x---x---x---x-----------------|
A|----7---7---9--9--7---7---9---9----7---7---9---9-----------------|
D|-----------------------------------------------------------------|

Repetir todo 2 veces y terminar en:
e|-------------------------------------------|
B|-------------------------------------------|
G|----4---4---4---4---4---4---4---4----------|
D|----x---x---x---x---x---x---x---x----------| x2
A|----2---2---2---2---2---2---2---2----------|
D|-------------------------------------------|


e|---0---------|
B|---6---------|
G|---0---------|   x4
D|---0---------|
A|---5---------|
D|---0---------|
Tap to rate this tab
 
# A B C D E F G H I J K L M N O P Q R S T U V W X Y Z