Guitaretab - guitar tabs
Song name
# A B C D E F G H I J K L M N O P Q R S T U V W X Y Z

Disidente - Enemigo tab

 DISIDENTE - ENEMIGO
JUDAS
2007
Tablatura hecha por: PoNChineRo (caifan_vampiro@hotmail.com)

    C#m
E||--4-------||
B||--5-------||
G||--6-------||
D||--6-------|| INTRO X 8 VUELTAS
A||----------||
E||----------||

la tranquilidad, se olvido de mi
    C#m
E||--4---------||
B||--5---------||
G||--6---------|| VERSO
D||--6---------||
A||------------||
E||------------||

tan pronto tann libre tan simple y tan fria

        A

E||-----0-----||
B||-----5-----||
G||-----6-----|| VERSO
D||-----7-----||
A||-----7-----||
E||-----------||


de alejarme del telon...


E||--------------------------------------------------------||
B||--------------------------------------------------------||
G||--------------------------------------------------------||
D||--10-10-11-11-10-10-11-11-10-10-11-11/13-11-------------||X2
A||--------------------------------------------------------||
E||--------------------------------------------------------||

SI QUIERES DESAPARECER...

GUITARRA 1
           DES  PER TANDO A MI ENE   MIGO
E||--------------------------------------------------------||
B||--------------------------------------------------------||
G||--------------------------------------------------------||
D||--10-10-11-11-10-10-11-11-10-10-11-11/13-11-------------||X2
A||--------------------------------------------------------||
E||--------------------------------------------------------||
[ Tab from: http://www.guitaretab.com/d/disidente/95584.html ]
     ES    TOY  TAN CER CA
GUITARRA 1
E||--------------------------------------------------------||
B||--------------------------------------------------------||
G||--------------------------------------------------------|| X4
D||--10-10-11-11/13-13-11-11-------------------------------||
A||--------------------------------------------------------||
E||--------------------------------------------------------||

GUITARRA 2 acompaņamiento
      A#5   F5
E||--------------||
B||--------------||
G||--------------||
D||--------------||
A||----8----3----||
E||----6----1----||


minuto 1:27

E||----------||
B||----------||
G||----------|| puente
D||-----2----||  X 8 VUELTAS
A||-----1----||
E||----------||

solo


E||--------------------------------||
B||--------------------------------||
G||--------------------------------||
D||--------------------------------||  X 2 VUELTAS
A||-1111repeat-3333/4444-----------||
E||--------------------------------||

E||--------------------------------||
B||--------------------------------||
G||--------------------------------||
D||--------------------------------||
A||-/66-88-66-88-66-88-66-88-------||
E||--------------------------------||

E||-------------------------------------------||
B||-------------------------------------------||
G||-------------------------------------------||
D||-------------------------------------------||
A||-1111repeat--------------------------------||
E||-------------------------------------------||


E||--4-------||
B||--5-------||
G||--6-------||
D||--6-------|| INTRO X 4 VUELTAS
A||----------||
E||----------||


ES TODA LA ROLA, EN SI ESTA MUY FACIL PERO CON ACORDES
REALMENTE BUENOS, ESE ES EL PODER DEL GRUNGE, ES CUESTION
 NOMAS DE QUE LA ESCUCHEN Y LOCALIZEN CADA PARTE DE LA
TABLATURA Y CON ESO LOGRAN JUNTAR YA TODA LA ROLA.

SI QUIEREN ESCRIBIR, ENVIAR SUS COMENTARIOS
Ō DUDAS A caifan_vampiro@hotmail.com

Saludos.
Wanatos RuLeS
Related for Enemigo tab