Song name
# A B C D E F G H I J K L M N O P Q R S T U V W X Y Z

Dismal Euphony - Abandon tab

-------------------------------------------------------------------------------
			     Abandon - Dismal Euphony
-------------------------------------------------------------------------------

Tune down to D# 
x = palm mute 
 
Riff A1 
|--------------------------------------------------------| 
|--------------------------------------------------------| 
|------------------------------------2----2--------------| 
|-3-------------------------2------2-2----2-3------------| 
|-1-11111111-4-5----------4-2------2-0----0-1-11111111---| 
|------------2-3-33333333-2-0-0000-0---00----------------| 
    xxxxxxxx     xxxxxxxx     xxxx     xx     xxxxxxxx 
						(1x) 
Riff A2 
|--------------------------------------------------------| 
|--------------------------------------------------------| 
|--------------------------------------2----2------------| 
|---3-------------------------2------2-2----2-3----------| 
|-4-1-11111111-4-5----------4-2------2-0----0-1-11111111-| 
|-2------------2-3-33333333-2-0-0000-0---00--------------| 
      xxxxxxxx     xxxxxxxx     xxxx     xx     xxxxxxxx 
						(3x) 
Riff B 
|--------------------------------------------------------| 
|--------------------------------------------------------| 
|--------------------------------------------------------| 
|-----4-----4-------4------------------------------------| 
|-2-5---3-2----2-5----3-2--------------------------------| 
|--------------------------------------------------------| 
						(2x) 
Riff A1 
|--------------------------------------------------------| 
|--------------------------------------------------------| 
|------------------------------------2----2--------------| 
|-3-------------------------2------2-2----2-3------------| 
|-1-11111111-4-5----------4-2------2-0----0-1-11111111---| 
|------------2-3-33333333-2-0-0000-0---00----------------| 
    xxxxxxxx     xxxxxxxx     xxxx     xx     xxxxxxxx 
						(1x) 
Riff A2 
|--------------------------------------------------------| 
|--------------------------------------------------------| 
|--------------------------------------2----2------------| 
|---3-------------------------2------2-2----2-3----------| 
|-4-1-11111111-4-5----------4-2------2-0----0-1-11111111-| 
|-2------------2-3-33333333-2-0-0000-0---00--------------| 
      xxxxxxxx     xxxxxxxx     xxxx     xx     xxxxxxxx 
						(1x) 
Riff C 
|--------------------------------------------------------| 
|--------------------------------------------------------| 
|-3------------3------------3------------3---------------| 
|-1--6--4--3---1--6--4--3---1--6--4--7---1--6--4--3------| 
|----4--2--1------4--2--1------4--2--5------4--2--1------| 
|--------------------------------------------------------| 
						(2x) 
 
Riff A1 
|--------------------------------------------------------| 
|--------------------------------------------------------| 
|------------------------------------2----2--------------| 
|-3-------------------------2------2-2----2-3------------| 
|-1-11111111-4-5----------4-2------2-0----0-1-11111111---| 
|------------2-3-33333333-2-0-0000-0---00----------------| 
    xxxxxxxx     xxxxxxxx     xxxx     xx     xxxxxxxx 
						(1x) 
Riff A2 
|--------------------------------------------------------| 
|--------------------------------------------------------| 
|--------------------------------------2----2------------| 
|---3-------------------------2------2-2----2-3----------| 
|-4-1-11111111-4-5----------4-2------2-0----0-1-11111111-| 
|-2------------2-3-33333333-2-0-0000-0---00--------------| 
      xxxxxxxx     xxxxxxxx     xxxx     xx     xxxxxxxx 
						(3x) 
Riff B 
|--------------------------------------------------------| 
|--------------------------------------------------------| 
|--------------------------------------------------------| 
|-----4-----4-------4------------------------------------| 
|-2-5---3-2----2-5----3-2--------------------------------| 
|--------------------------------------------------------| 
						(2x) 
Riff A1 
|--------------------------------------------------------| 
|--------------------------------------------------------| 
|------------------------------------2----2--------------| 
|-3-------------------------2------2-2----2-3------------| 
|-1-11111111-4-5----------4-2------2-0----0-1-11111111---| 
|------------2-3-33333333-2-0-0000-0---00----------------| 
    xxxxxxxx     xxxxxxxx     xxxx     xx     xxxxxxxx 
						(1x) 
Riff A2 
|--------------------------------------------------------| 
|--------------------------------------------------------| 
|--------------------------------------2----2------------| 
|---3-------------------------2------2-2----2-3----------| 
|-4-1-11111111-4-5----------4-2------2-0----0-1-11111111-| 
|-2------------2-3-33333333-2-0-0000-0---00--------------| 
      xxxxxxxx     xxxxxxxx     xxxx     xx     xxxxxxxx 
						(3x) 
Riff B 
|--------------------------------------------------------| 
|--------------------------------------------------------| 
|--------------------------------------------------------| 
|-----4-----4-------4------------------------------------| 
|-2-5---3-2----2-5----3-2--------------------------------| 
|--------------------------------------------------------| 
						(2x)
Tap to rate this tab
# A B C D E F G H I J K L M N O P Q R S T U V W X Y Z